Oops, an error
Loading. Please wait.

Sharper Lives Tab

1,688 views 3 this week
no commentswrite comment
1 2 3 4 5
please rate
add to favorites
launch autoscroll
font size
0
reset
how to read this tab
guitar tuner
Autoscroll
slow
fast
+/-
esc
set tempo
stop
Help us to improve Ultimate-Guitar.com Take our survey!
×
Author
e|----------------------------------------------------------------------------|
B|----------------------------------------------------------------------------|
G|----------------------------------------------------------------------------|
D|----------------------------------------------------------------------------|1x
A|-4-4-4-4-4-4-4-4-4-4-4-4-4-4-4-4-4-4-4-4-4-4-4-4-4-4-4-4-4-4-4-4------------|
E|----------------------------------------------------------------------------|
pm . . . . . . . . . . . . . . . . . . . . . . . . . . . . . . . .
intro part two 2x
e|----------------------------------------------------------------------|
B|----------------------------------------------------------------------|
G|----------------------------------------------------------------------|
D|----------------------------------------------------------------------|
A|-4-4-4-4-4-4-4-4-4-4-4-4-4-4-4-4-0-0-0-0-0-0-0-0-0-0-0-0-0-0-0-0------|
E|----------------------------------------------------------------------|
pm . . . . . . . . . . . . . . . . . . . . . . . . . . . . . . . .
at about 0:10
e|------------------------------------------------------------------------|
B|------------------------------------------------------------------------|
G|------------------------------------------------------------------------|
D|------------------------------------------------------------------------|
A|------------------------------------------------------------------------|
E|-2-2-2-2-2-2-2-2-2-2-2-2-2-2-2-2-4-4-4-4-4-4-4-4-4-4-4-4-4-4-4-4--------|
pm . . . . . . . . . . . . . . . . . . . . . . . . . . . . . . . .

Guitar 2
e|--------------------------------------------------------------------------|
B|--------------------------------------------------------------------------|
G|-----------11----------------------------11-------11-------11-------------|
D|--11-13-14----14-13-11----------11-13-14----14-13----14-13----14-13-11----|
A|--------------------------------------------------------------------------|
E|--------------------------------------------------------------------------|
do this a few times through out intro listen for timing. with a few pinch harmonics.

prechorus light distortion
e|---------------------------------------------------------------------------|
B|---------------------------------------------------------------------------|
G|-6~~--8~~-------4~~--------------------------------------------------------|
D|-7~~--9~~--4~~--4~~------------------------------------------------------|x2
A|-4~~--6~~--4~~--6~~--------------------------------------------------------|
E|-----------6~~-------------------------------------------------------------|


Chorus
e|----------------------------------------------------------------------|
B|----------------------------------------------------------------------|
G|-6-6--6-6-6-6---6-6--6-6-6-6------------------------------------------|
D|-6-6--6-6-6-6---6-6--6-6-6-6--7-7--7-9-7~-7777(---2-2--2-4-2-2222)----|
A|-4-4--4-4-4-4---4-4--4-4-4-4--7-7--7-9-7~-7777(or-2-2--2-4-2-2222)----|
E|------------------------------5-5--5-7-5~-5555(---0-0--0-2-0-0002)----|
                                                                                    x2
e|----------------------------------------------------------------------|
B|----------------------------------------------------------------------|
G|----------------------------------------------------------------------|
D|-4-4--4-4-4-4---4-4--4-4-4-4---6-6--6-6-6-6---6-6--6-6-6-6------------|
A|-4-4--4-4-4-4---4-4--4-4-4-4---6-6--6-6-6-6---6-6--6-6-6-6------------|
E|-2-2--2-2-2-2---2-2--2-2-2-2---2-2--2-2-2-2---2-2--2-2-2-2------------|

Guitar 2 Chorus
e|--------------------------------------------------------------------------|
B|--------------------------------------------------------------------------|
G|-13131313-13131313-13131313-13131313-99-9-11-9~-9999----------------------|
D|-x-x-x-x--x-x-x-x--x-x-x-x--x-x-x-x--xx-x-x--x~-xxxx----------------------|
A|-11111111-1111111--11111111-11111111-77-7-9--7~-7777----------------------|
E|--------------------------------------------------------------------------|

e|--------------------------------------------------------------------------|
B|--------------------------------------------------------------------------|
G|-6666-6666-6666-6666--8888-8888-8888-8888---------------------------------|
D|-xxxx-xxxx-xxxx-xxxx--xxxx-xxxx-xxxx-xxxx---------------------------------|
A|-4444-4444-4444-4444--6666-6666-6666-6666---------------------------------|
E|--------------------------------------------------------------------------|
intro part two again but only play riff once.
prechorus
chorus
Some bridge type solo
chorus
chorus played in backround with solo overtop
ending
e|-------------------------------------------------------------------------|
B|-------------------------------------------------------------------------|
G|-------------------------------------------------------------------------|
D|-------------------------------------------------------------------------|
A|4-4-4-4-4-3-2-1----------------------------------------------------------|
E|----------------0--------------------------------------------------------|


| /  slide up
| \  slide down
| h  hammer-on
| p  pull-off
| ~  vibrato
| +  harmonic
| x  Mute note
Suggest correction
Give kudos to tab author, rate the tab!
1 2 3 4 5
comments
print report bad tab
guest
You may want to rate the tab now too:
select rating
Please do not post tabs as comments. Select "correction" instead!