Oops, an error
Loading. Please wait.

Sing Tab

version 1
version 1

Whole song

Interactive

68,373 views 66 this week
no commentswrite comment
1 2 3 4 5
accurate
x 18
add to favorites
launch autoscroll
font size
0
reset
how to read this tab
guitar tuner
Tab Pro tools
  • play this tab
  • loop segment
  • change instrument
  • show fretboard
  • metronome
×
Best way to learn
"Sing"
Autoscroll
slow
fast
+/-
esc
set tempo
stop
Contributor
Standard Tuning

Verse 1 (Mostly piano and distortion)
Piano (Play this throughout verses)
e---0---0---0---0---0---0---0---0---0---0---0---0---0---0---0---|
b-5---5---5---5---3---3---3---3---2---2---2---2---1---1---3---3-|
g---------------------------------------------------------------|
d---------------------------------------------------------------|
a---------------------------------------------------------------|
e---------------------------------------------------------------|

Midway through verse
e----------------------|
b----------------------|
g-9~---7~---6~---5~-7~-|
d-9~---7~---6~---5~-7~-|
a-7~---5~---4~---3~-5~-|
e----------------------|

Guitar 1 (Plays it softly)
e------------|
b------12~---| repeat as needed
g-9~---------|
d------------|
a------------|
e------------|

Chorus
e------------------------------------|
b------------------------------------|
g----------77777777-9999999999999999-|
d-55555555-77777777-9999999999999999-|
a-55555555-55555555-7777777777777777-|
e-33333333---------------------------|

e----------------------------------------------------|
b----------------------------------------------------|
g-----------------------------------7777777777777777-|
d-1010101010101010--9-9-9-9-9-9-9-9-7777777777777777-|
a-1010101010101010-1010101010101010-5555555555555555-|
e--8-8-8-8-8-8-8-8--7-7-7-7-7-7-7-7------------------|

e-----------------------------------------------------------|
b-----------------------------------------------------------|
g----------55555555-------------------55555555-77777777-----|
d-22222222-55555555-55555555-77777777-55555555-77777777-2~--|
a-22222222-33333333-55555555-77777777-33333333-55555555-2~--|
e-00000000----------33333333-55555555-------------------0~--|

Verse 2
Piano is same
Guitar 1 is same

Guitar 2
e-------------------------------------------------------|
b-----------------------12--------------------------12--|
g-11br--11h12p11--12h14-------11br--11h12h14--12h14-----|
d-------------------------------------------------------|
a-------------------------------------------------------|
e-------------------------------------------------------|

Chorus

Bridge (Pretty iffy after the little riff Guitar 1 does)
Guitar 1
e--------------------------------|
b--------------------------------|
g--------------------------------| 2x
d--------------------------------|
a--------7-----7---------7--5-57-|
e-0--467---467----0--467---------|

Guitar 1
e--------------------------|
b--------------------------|
g--------------------------|
d--------------------------|
a------7---7-------7--5-57-|
e-0--0---0----0--0---------|

Guitar 2
e-0-0-0-0-0-0-0-0-0-0-0-0-0-0-0-0-|
b-5-5-5-5-5-5-5-5-5-5-5-5-5-5-5-5-| repeat
g---------------------------------| several
d---------------------------------| times
a---------------------------------|
e---------------------------------|

(optional to play zeroes on top e string)
e(000000000000-000000000000--0-0-0-0-0-0-0-0-0-0-0-0--0-0-0-0-0-0-0-0-0-0-0-0--|
b-555555555555-888888888888-101010101010101010101010-121212121212121212121212--|
g-xxxxxxxxxxxx-xxxxxxxxxxxx--x-x-x-x-x-x-x-x-x-x-x-x--x-x-x-x-x-x-x-x-x-x-x-x--|
d-222222222222-555555555555--7-7-7-7-7-7-7-7-7-7-7-7--9-9-9-9-9-9-9-9-9-9-9-9--|
a------------------------------------------------------------------------------|
e------------------------------------------------------------------------------|

Final Chorus
e---------------------------|
b---------------------------|
g-----7~--9~------------7~--|
d-5~--7~--9~--10~---9~--7~--|
a-5~--5~--7~--10~--10~--5~--|
e-3~-----------8~---7~------|

Chorus
Piano Verse Riff till end
end with
e-----|
b-----|
g-----|
d-2~--|
a-2~--|
e-0~--|
comments
print report bad tab
I want to post or [tab]
guest
You may want to rate the tab now too:
select rating
Please do not post tabs as comments. Select "correction" instead!