Oops, an error
Loading. Please wait.

Sing Tab

version 1
version 1

Whole song

Interactive

71,320 views 24 this week
no commentswrite comment
1 2 3 4 5
x 21
add to favorites
launch autoscroll
font size
0
reset
how to read this tab
guitar tuner
backing track
0:00
0:00
Autoscroll
slow
fast
+/-
esc
set tempo
stop
Standard Tuning

[Verse 1] (Mostly piano and distortion)
 Piano (Play this throughout verses)
e|---0---0---0---0---0---0---0---0---0---0---0---0---0---0---0---|
B|-5---5---5---5---3---3---3---3---2---2---2---2---1---1---3---3-|
G|---------------------------------------------------------------|
D|---------------------------------------------------------------|
A|---------------------------------------------------------------|
E|---------------------------------------------------------------|

 Midway through verse
e|----------------------|
B|----------------------|
G|-9~---7~---6~---5~-7~-|
D|-9~---7~---6~---5~-7~-|
A|-7~---5~---4~---3~-5~-|
E|----------------------|

 Guitar 1 (Plays it softly)
e|------------|
B|------12~---| repeat as needed
G|-9~---------|
D|------------|
A|------------|
E|------------|

[Chorus]
e|------------------------------------|
B|------------------------------------|
G|----------77777777-9999999999999999-|
D|-55555555-77777777-9999999999999999-|
A|-55555555-55555555-7777777777777777-|
E|-33333333---------------------------|

e|----------------------------------------------------|
B|----------------------------------------------------|
G|-----------------------------------7777777777777777-|
D|-1010101010101010--9-9-9-9-9-9-9-9-7777777777777777-|
A|-1010101010101010-1010101010101010-5555555555555555-|
E|--8-8-8-8-8-8-8-8--7-7-7-7-7-7-7-7------------------|

e|-----------------------------------------------------------|
B|-----------------------------------------------------------|
G|----------55555555-------------------55555555-77777777-----|
D|-22222222-55555555-55555555-77777777-55555555-77777777-2~--|
A|-22222222-33333333-55555555-77777777-33333333-55555555-2~--|
E|-00000000----------33333333-55555555-------------------0~--|

[Verse 2]
Piano is same
Guitar 1 is same

 Guitar 2
e|-------------------------------------------------------|
B|-----------------------12--------------------------12--|
G|-11br--11h12p11--12h14-------11br--11h12h14--12h14-----|
D|-------------------------------------------------------|
A|-------------------------------------------------------|
E|-------------------------------------------------------|

[Chorus]

[Bridge] (Pretty iffy after the little riff Guitar 1 does)
 Guitar 1
e|--------------------------------|
B|--------------------------------|
G|--------------------------------| 2x
D|--------------------------------|
A|--------7-----7---------7--5-57-|
E|-0--467---467----0--467---------|

 Guitar 1
e|--------------------------|
B|--------------------------|
G|--------------------------|
D|--------------------------|
A|------7---7-------7--5-57-|
E|-0--0---0----0--0---------|

 Guitar 2
e|-0-0-0-0-0-0-0-0-0-0-0-0-0-0-0-0-|
B|-5-5-5-5-5-5-5-5-5-5-5-5-5-5-5-5-| repeat
G|---------------------------------| several
D|---------------------------------| times
A|---------------------------------|
E|---------------------------------|

 (optional to play zeroes on top e string)
e|(000000000000-000000000000--0-0-0-0-0-0-0-0-0-0-0-0--0-0-0-0-0-0-0-0-0-0-0-0--|
B|-555555555555-888888888888-101010101010101010101010-121212121212121212121212--|
G|-xxxxxxxxxxxx-xxxxxxxxxxxx--x-x-x-x-x-x-x-x-x-x-x-x--x-x-x-x-x-x-x-x-x-x-x-x--|
D|-222222222222-555555555555--7-7-7-7-7-7-7-7-7-7-7-7--9-9-9-9-9-9-9-9-9-9-9-9--|
A|------------------------------------------------------------------------------|
E|------------------------------------------------------------------------------|

 [Final Chorus]
e|---------------------------|
B|---------------------------|
G|-----7~--9~------------7~--|
D|-5~--7~--9~--10~---9~--7~--|
A|-5~--5~--7~--10~--10~--5~--|
E|-3~-----------8~---7~------|

[Chorus]
 Piano Verse Riff till end
 end with
e|-----|
B|-----|
G|-----|
D|-2~--|
A|-2~--|
E|-0~--|

************************************

| ~   Vibrato
| h   Hammer-on
| p   Pull-off
| br  Bend release
| x   Dead note

************************************
Suggest correction
comments
print report bad tab
guest
You may want to rate the tab now too:
select rating
Wanna post a correction for this tab? Suggest correction