Oops, an error
Loading. Please wait.
We have an official Sleep tab made by UG professional guitarists. Check out the tab »
×
8,206 views 9 this week
13 commentsread comments
1 2 3 4 5
x 9
add to favorites
×
Save as Personal and add changes to this tab that will be seen only by you. Learn more ›
×
You can save this tab as Personal to edit and correct it or add notes. All changes will be seen only by you. Learn more »
launch autoscroll
font size
0
reset
guitar tuner
edit
Autoscroll
slow
fast
+/-
esc
set tempo
stop
Sleep
My Chemical Romance
The Black Parade

Bass - Mikey Way

!INTRO!

G|---------------------------------|---------------------------------|
D|---------------------------------|---------------------------------|
A|-3-3-3-3-3-3-3-3-----------------|---------------------------------|
E|-----------------1-1-1-1-1-1-1-1-|-3-3-3-3-3-3-3-3-3-3-3-3-3-3-3-3-|

continued

G|---------------------------------|---------------------------------|
D|---------------------------------|---------------------------------|
A|---------------------------------|---------------------------------|
E|-0-0-0-0-0-0-0-0-1-1-1-1-1-1-1-1-|-3-3-3-3-3-3-3-3-3-3-3-3-3-3-3-3-|


!VERSE! - i can't vry much hear the bass here so i used danielgalla3's gp verse tab... thanx ah!!!
	- evry note xcept the very 1st is a quarter note so it's quite slow...

G|-----------------|-----------------|
D|-----------------|-----------------|
A|-3---------------|-3-3-------------|
E|-----1-1-3-3-3-3-|-----1-1-3-3-3-3-|

continued

G|-----------------|-----------------|2x
D|-----------------|-----------------|
A|-3-3-------------|-3-3-------------|
E|-----1-1-3-3-3-3-|-----1-1-3-3-3-3-|

!REFRAIN!

G|---------------------------------|---------------------------------|
D|---------------------------------|---------------------------------|
A|---------------------------------|---------------------------------|
E|-4-4-4-4-4-4-4-4-4-4-4-4-4-4-4-4-|-1-1-1-1-1-1-1-1-1-1-1-1-1-1-1-1-|

continued

G|---------------------------------|---------------------------------|
D|---------------------------------|---------------------------------|
A|-3-3-3-3-3-3-3-3-3-3-3-3-3-3-3-3-|-1-1-1-1-1-1-1-1-1-1-1-1-1-1-1-1-|
E|---------------------------------|---------------------------------|

continued

G|---------------------------------|---------------------------------|
D|---------------------------------|---------------------------------|
A|---------------------------------|---------------------------------|
E|-4-4-4-4-4-4-4-4-4-4-4-4-4-4-4-4-|-1-1-1-1-1-1-1-1-1-1-1-1-1-1-1-1-|

!CHORUS!

G|---------------------------------|---------------------------------|
D|---------------------------------|---------------------------------| 2x
A|-3-3-3-3-3-3-3-3-3-3-3-3-3-3-3-3-|---------------------------------|
E|---------------------------------|-0-0-0-0-0-0-0-0-0-0-0-0-0-0-0-0-|

then,

G|---------------------------------|-------------------|
D|---------------------------------|-------------------|
A|---------------------------------|-------------------|
E|-1---1---1---1---1---1---1---1---|-4-4-4-4-4-4-4-4-3-|

Repeat !VERSE!, !REFRAIN! and !CHORUS!

piano part...

Then some weird effects comes in with the drums nd guitar...

!INTRO! 3x

G|---------------------------------|---------------------------------|
D|---------------------------------|---------------------------------|
A|-3-3-3-3-3-3-3-3-----------------|---------------------------------|
E|-----------------1-1-1-1-1-1-1-1-|-3-3-3-3-3-3-3-3-3-3-3-3-3-3-3-3-|

continued

G|---------------------------------|-----------------
D|---------------------------------|-----------------
A|---------------------------------|-----------------the rest is replaced
E|-0-0-0-0-0-0-0-0-1-1-1-1-1-1-1-1-|-3-3-3-3-3-3-3-3- by

this vvv
G|---------------------------------|
D|---------------------------------|
A|---------------------------------|
E|-3---3---3---3---3---3---3---3---|

!CHORUS 4x!

end with,

G|--------|
D|--------|
A|-3~~~~--|
E|--------|

            
            
Suggest correction
Creating personal tab
Creating personal tab
You can edit any tab online and save it as your Personal.

You can edit, replace or remove any tab part or add personal notes – all changes will be seen only by you.

Personal tabs can be accessed anytime from any device, even offline.
Learn more »
comments
print report bad tab
13 comments total. Showing first comments.
0 reply
f1f2 774 Apr 02, 2007 05:12 AM

hmmmmmmm..... may napapansin ako ha.... heheh...

0 reply
LewisMasonx 1,741 Apr 02, 2007 07:05 AM

Glad someone finally tabbed it! Great tab! Reckon you could do Teenagers?

0 reply
chads_in_hi_fi 97 Apr 05, 2007 03:48 AM

thank you so much for tabbing it! lol.

guest
You may want to rate the tab now too:
select rating
Wanna post a correction for this tab? Suggest correction