Oops, an error
Loading. Please wait.

Stay tab

version 2
version 2

Whole song

Interactive

3,699 views 1 this week
5 commentsread comments
1 2 3 4 5
x 3
add to favorites
×
Save as Personal and add changes to this tab that will be seen only by you. Learn more ›
×
You can save this tab as Personal to edit and correct it or add notes. All changes will be seen only by you. Learn more »
launch autoscroll
font size
0
reset
how to read this tab
guitar tuner
edit
Autoscroll
slow
fast
+/-
esc
set tempo
stop
Author
Difficulty
Song: Stay
Artist: My Chemical Romance
Album: ? not yet released
Tabbed By: Freddie DiPietro

I tabbed this for one guitar, i realize there are two guitar parts and now a keyboard 
but i wanted to be able to play this song because i think it's amazing, so this may not be 
tab for when they actually record it but this should give you something to play around with.


INTRO
e|------14--13-------------14--13------------14--13------------14--13--------|
B|--16--------16--16---16--------16--16--16--------16--16--16--------16--16--|
G|15--15--15----15---15--15--15----15--15--15--15----15--15--15--15----15----|
D|---------------------------------------------------------------------------|
A|---------------------------------------------------------------------------|
E|---------------------------------------------------------------------------|

e|------14--13------------14--13---------------------------------------------|
B|--16--------16--16--16--------16--16----13-12------------------------------|
G|15--15--15----15--15--15--15----15-----------11-12-11-11-12-11-10----------|
D|---------------------------------------------------------------------------|
A|---------------------------------------------------------------------------|
E|---------------------------------------------------------------------------|

e|---------------------------------------------------------------------------|
B|13-12----------------------------------------------------------------------|
G|-----11-12-11-11-12-11-10--------------------------------------------------|
D|---------------------------------------------------------------------------|
A|---------------------------------------------------------------------------|
E|---------------------------------------------------------------------------|

e|---------------------------------------------------------------------------|
B|---------------------------------------------------------------------------|
G|---------------------------------------------------------------------------|
D|2~--4~--5~--10~-7~~---2~--4~--5~--10~-7~-----------------------------------|
A|2~--4~--5~--10~-7~~---2~--4~--5~--10~-7~-----------------------------------|
E|0~--2~--3~--8~--5~~---0~--2~--3~--8~--5~-----------------------------------|

e|---------------------------------------------------------------------------|
B|---------------------------------------------------------------------------|
G|999999997999911111112-12-12-999999997999911111112-12-12--------------------|
D|---------------------------------------------------------------------------|
A|77777777577779-9-9-10-10-10-77777777577779-9-9-10-10-10--------------------|
E|---------------------------------------------------------------------------|

Verse 1
e|--7~--7-----7--------------------------------------------------------------|
B|-8---8-8---5-5-------------------------------------------------------------|
G|9---7---7-5-----999999997999911111112-12-12-999999997999911111112-12-12----|
D|---------------------------------------------------------------------------|
A|----------------77777777577779-9-9-10-10-10-77777777577779-9-9-10-10-10----|
E|---------------------------------------------------------------------------|
Chorus
e|---------------------------------------------------------------------------|
B|---------------------------------------------------------------------------|
G|1212121212121212--------9-9-9-9-9999999955557777--X2-----------------------|
D|1212121212121212121212129-9-9-9-9999999955557777---------------------------|
A|101010101010101012121212111111117777777733335555---------------------------|
E|----------------10101010---------------------------------------------------|

Verse 2
e|--7~--7-8-10-8-7--7~--7-8-10-8-7-------------------------------------------|
B|-8---8-----------8---8-----------------------------------------------------|
G|9---7-----------9---7------------------------------------------------------|
D|---------------------------------------------------------------------------|
A|---------------------------------------------------------------------------|
E|---------------------------------------------------------------------------|

e|---------------------------------------------------------------------------|
B|---------------------------------------------------------------------------|
G|999999997999911111112-12-12-999999997999911111112-12-12--------------------|
D|---------------------------------------------------------------------------|
A|77777777577779-9-9-10-10-10-77777777577779-9-9-10-10-10--------------------|
E|---------------------------------------------------------------------------|

Chorus
e|---------------------------------------------------------------------------|
B|---------------------------------------------------------------------------|
G|1212121212121212--------9-9-9-9-9999999955557777--X2-----------------------|
D|1212121212121212121212129-9-9-9-9999999955557777---------------------------|
A|101010101010101012121212111111117777777733335555---------------------------|
E|----------------10101010---------------------------------------------------|

Bridge
e|---------------------------------------------------------------------------|
B|---------------------------------------------------------------------------|
G|---------------------------------------------------------------------------|
D|77777777544444444-77777777544444444-77777777544444444-777777775------------|
A|77777777544444444-77777777544444444-77777777544444444-777777775------------|
E|55555555322222222-55555555322222222-55555555322222222-555555553------------|

e|---------------------------------------------------------------------------|
B|---------------------------------------------------------------------------|
G|-----------------55555555--8-8-7-7-----------------------------------------|
D|1010101010101010-55555555--------------------------------------------------|
A|1010101010101010-33333333-6-6-5-5------------------------------------------|
E|8-8-8-8-8-8-8-8------------------------------------------------------------|

Solo
e|-----------------------------------------------------------------------------|
B|-----------------------------------------------------------------------------|
G|1212121212121212111212121219191919121212121212119111212121214121112----------|
D|-----------------------------------------------------------------------------|
A|10101010101010109-10101010171717171010101010109-79-101010101210-910----------|
E|-----------------------------------------------------------------------------|

Chorus
e|---------------------------------------------------------------------------|
B|---------------------------------------------------------------------------|
G|1212121212121212--------9-9-9-9-9999999955557777--X2-----------------------|
D|1212121212121212121212129-9-9-9-9999999955557777---------------------------|
A|101010101010101012121212111111117777777733335555---------------------------|
E|----------------10101010---------------------------------------------------|

Bridge
e|---------------------------------------------------------------------------|
B|---------------------------------------------------------------------------|
G|---------------------------------------------------------------------------|
D|77777777544444444-77777777544444444-77777777544444444-77777777510101010----|
A|77777777544444444-77777777544444444-77777777544444444-77777777510101010----|
E|55555555322222222-55555555322222222-55555555322222222-5555555538-8-8-8-----|

Outro
e|---------------------------------------------------------------------------|
B|---------------------------------------------------------------------------|
G|---------------------------------------------------------------------------|
D|9~-7~-5~~------------------------------------------------------------------|
A|9~-7~-5~~------------------------------------------------------------------|
E|7~-5~-3~~------------------------------------------------------------------|

alright well here it is.... hope you enjoy. this is my first tab ever so any comments 
be appreciated... my email is, chefd2010@hotmail.com
Freddie DiPietro

            
            
Suggest correction
Creating personal tab
Creating personal tab
You can edit any tab online and save it as your Personal.

You can edit, replace or remove any tab part or add personal notes – all changes will be seen only by you.

Personal tabs can be accessed anytime from any device, even offline.
Learn more »
Give kudos to tab author, rate the tab!
1 2 3 4 5
comments
print report bad tab
5 comments total. Showing first comments.
0 reply
takingfire21 40 Feb 20, 2008 02:34 PM

where can i find this song online?

0 reply
mcr_01_fan 697 Feb 26, 2008 10:25 AM

Pretty good tab, but I'm kinda sure that the chorus goes like this:

e:|-----------------------------------------------------------------|
B:|-----------------------------------------------------------------|
G:|-----------------------------------------------------------------|
D:|-5-5-5-5-5-5-5-5-5-5-5-5-5-5-5-5-4-4-4-4-4-4-4-4-4-4-4-4-4-4-4-4-|
A:|-5-5-5-5-5-5-5-5-5-5-5-5-5-5-5-5-5-5-5-5-5-5-5-5-5-5-5-5-5-5-5-5-|
E:|-3-3-3-3-3-3-3-3-3-3-3-3-3-3-3-3-2-2-2-2-2-2-2-2-2-2-2-2-2-2-2-2-|

e:|-----------------------------------------------------------------|
B:|-----------------------------------------------------------------|
G:|---------------------------------5-5-5-5-5-5-5-5-7-7-7-7-7-7-7-7-|
D:|-2-2-2-2-2-2-2-2-2-2-2-2-2-2-2-2-5-5-5-5-5-5-5-5-7-7-7-7-7-7-7-7-|
A:|-2-2-2-2-2-2-2-2-2-2-2-2-2-2-2-2-3-3-3-3-3-3-3-3-5-5-5-5-5-5-5-5-|
E:|-0-0-0-0-0-0-0-0-0-0-0-0-0-0-0-0---------------------------------|

0 reply
Flikz_hck 10 Dec 31, 2008 06:17 PM

where in hell is the other guitar?!
did mcr expell frank? or ray?

guest
You may want to rate the tab now too:
select rating
Wanna post a correction for this tab? Suggest correction