Oops, an error
Loading. Please wait.

Summertime solo tab

version 3
version 3
184 views 1 this week
no commentswrite comment
1 2 3 4 5
2 more votes to show rating
add to favorites
×
Save as Personal and add changes to this tab that will be seen only by you. Learn more ›
×
You can save this tab as Personal to edit and correct it or add notes. All changes will be seen only by you. Learn more »
launch autoscroll
font size
0
reset
how to read this tab
guitar tuner
edit
Autoscroll
slow
fast
+/-
esc
set tempo
stop
Author
Difficulty
This is my first tab but am open to suggestions and any corrections just leave a comment and I will change it
I hope you enjoy this tab!!

There are a few tabs of this already but I found them quite difficult to play so adapted them slightly so
it was easier and this is what I got.

b - bend (when it is before the fret it means to bend it before you pluck it rather than after but I didn't
          know what the correct way to show this was so please let me know).

/ - slide from the fret before the / to the one after it.

h - hammer on from the fret before the h to the fret after it

Tabbed by: Jack Punter
E-mail: jackpunter99@gmail.com

Tuning: EADGBe 

e|-------------------------------------------------------------------------------------------------------
B|-10-10-10-10-----10-10-10-10--------------------------------10-10-10-10-----10-10-10-10----------------
G|-------------7-7-------------6-6-9-9-9-9/11-11/14-14--------------------7-7-------------6-6-9-9-9-9/11-
D|-----------------------------------------------------11-10b--------------------------------------------
A|-------------------------------------------------------------------------------------------------------
E|-------------------------------------------------------------------------------------------------------

e|------------------------------------------------|--------------------|------------------------
B|----------------14-14-14-14b-12-12-14-b14-14----|17-17-17-17/19-19-19|-14-12-14-14-14-14b-----
G|11/14-14/16-16b------------------------------14-|--------------------|-------------------14-14
D|------------------------------------------------|--------------------|------------------------
A|------------------------------------------------|--------------------|------------------------
E|------------------------------------------------|--------------------|------------------------
                                                   This section could
                                                   also be played like
                                                   so:
                                                 e|12-12-12-12h14-14-14|
                                                 B|--------------------|
                                                 G|--------------------|
                                                 D|--------------------|
                                                 A|--------------------|
                                                 E|--------------------|
e|--------------------
B|-14-b14-14-12-14-15-
G|--------------------
D|--------------------
A|--------------------
E|--------------------

            
            
Suggest correction
Creating personal tab
Creating personal tab
You can edit any tab online and save it as your Personal.

You can edit, replace or remove any tab part or add personal notes – all changes will be seen only by you.

Personal tabs can be accessed anytime from any device, even offline.
Learn more »
Give kudos to tab author, rate the tab!
1 2 3 4 5
comments
print report bad tab
guest
You may want to rate the tab now too:
select rating
Wanna post a correction for this tab? Suggest correction