Oops, an error
Loading. Please wait.

Summertime tab

version 8
version 8

Interactive

103 views 1 this week
no commentswrite comment
1 2 3 4 5
2 more votes to show rating
add to favorites
×
Save as Personal and add changes to this tab that will be seen only by you. Learn more ›
×
You can save this tab as Personal to edit and correct it or add notes. All changes will be seen only by you. Learn more »
launch autoscroll
font size
0
reset
how to read this tab
guitar tuner
edit
Autoscroll
slow
fast
+/-
esc
set tempo
stop
Author
Difficulty
I was trying to learn this song and I couldn't find a version that had everything on it, so I made my own.
This sounds right to me, but if I got anything wrong you can contact me at hgwarriors@yahoo.com

Summertime - My Chemical Romance

Intro
e------------------------------------------------------------------------------------------------------------
B----------------10--7-7-7-7-7-7-7--8-8-8-8-8--10-10--7--7-7-7-7--------------------10--7-7-7-7-7-7-7--10-10-
G-7-7-7-7-7-7-7--------------------------------------------------6-6-6-7-7-7-7-7-7-7-------------------------
D------------------------------------------------------------------------------------------------------------
A------------------------------------------------------------------------------------------------------------
E------------------------------------------------------------------------------------------------------------

e-----------------------------------------------------------------------------------------------------
B-10-10-10-10-10-10-10-10-10-10-10-10-10-10------8--7--5--------8--7--5-------8--7--5--10--8--7--5----
G---------------------------------------------7-----------6--------------4----------------------------
D-----------------------------------------------------------------------------------------------------
A-----------------------------------------------------------------------------------------------------
E-----------------------------------------------------------------------------------------------------

                    D
When the lights go out

Will you take me with you?

A                          Em
And carry all this broken bone

                            G
Through six years down in crowded rooms

                     D
And highways I call home

                               A
Is something I cant know till now

                             Em
Till you picked me off the ground

                           G
With brick in hand, your lip gloss smile

        A
Your scraped-up knees and


G        A
If you stay

         D             G
I would even wait all night

G      A              Bm
Or until my heart explodes

Bm
How long? until we

G         A          D              G
Find our way in the dark and out of harm

         G            A             
You can run away with me 

anytime you want


D                      A
Terrified of what I'd be

                         Em
As a kid from what I've seen

                       G     
Every single day when people try

                    D
And put the pieces back together

                    A
Just to smash them down

                            Em
Turn my headphones up real loud

                           G
I don't think I need them now

           A
Cause you stop the noise


G        A
If you stay

         D             G
I would even wait all night

G      A              Bm
Or until my heart explodes

Bm
How long? until we

G         A          D              G
Find our way in the dark and out of harm

         G            A             
You can run away with me

anytime you want


e-------------------------------------------------------------------
B-------------------------------------------------------------------
G-9--11--11-11---9--11--11-11-11----9--11--11-11---9--11--11-11-11--
D-0---0---0--0---0---0---0--0--0----0---0---0--0---0---0---0--0--0--
A-------------------------------------------------------------------
E-------------------------------------------------------------------


anytime you want


e--10------9-------7-------9---------
B-----10-----10------10------10------
G------------------------------------
D------------------------------------
A------------------------------------
E------------------------------------


anytime you want


Solo
e-------------------------------------------------------------------------------------------------------------
B-------------------------------------------------------------------------------------------------------------
G-14-14-14-14-----------14-14-14-14----------------------14-----------------14-14-14-14-----------14-14-14-14-
D--------------12-12-12-------------11-11-11--14-14-14-16---11-9--9-9-9-9---------------12-12-12--------------
A-------------------------------------------------------------------------------------------------------------
E-------------------------------------------------------------------------------------------------------------

e-------------------------------------------------------------------------------------------------------------
B---------------------------------------------------------17-17-17-19-19-14-12-12-12-12-12--12-14-15-14-12-14-
G-----------------------14-14-16--16-18-19-18-16-18-19-14-----------------------------------------------------
D-11-11-11--14-14-14-16---------------------------------------------------------------------------------------
A-------------------------------------------------------------------------------------------------------------
E-------------------------------------------------------------------------------------------------------------

e-----------------
B-15-14-12-14-15--
G-----------------
D-----------------
A-----------------
E-----------------


Don't walk away

Don't walk away

Don't walk away

             G
Don't walk away

         A
If you stay

         D             G
I would even wait all night

G      A              Bm
Or until my heart explodes

Bm
How long? until we

G         A          D              G
Find our way in the dark and out of harm

         G            A
You can run away with me

          D               G
You can write it on your arm

         G            A
You can run away with me...

             
Anytime you want


Outro
e-------------------------------------------------------
B----------------10--7-7-7-7-7-7-7-8-8-8-8-8--10-10--7--
G-7-7-7-7-7-7-7-----------------------------------------
D-------------------------------------------------------
A-------------------------------------------------------
E-------------------------------------------------------

End
Suggest correction
Creating personal tab
Creating personal tab
You can edit any tab online and save it as your Personal.

You can edit, replace or remove any tab part or add personal notes – all changes will be seen only by you.

Personal tabs can be accessed anytime from any device, even offline.
Learn more »
Give kudos to tab author, rate the tab!
1 2 3 4 5
comments
print report bad tab
guest
You may want to rate the tab now too:
select rating
Wanna post a correction for this tab? Suggest correction