Oops, an error
Loading. Please wait.

Teenagers Bass Tab

version 1
version 1

Whole song

Interactive

116,071 views 204 this week
20 commentsread comments
1 2 3 4 5
excellent!
x 80
add to favorites
launch autoscroll
font size
0
reset
guitar tuner
Autoscroll
slow
fast
+/-
esc
set tempo
stop
Help us to improve Ultimate-Guitar.com Take our survey!
×
Author
-------------------------------------------------------------------------------
                            TEENAGERS - My Chemical Romance
-------------------------------------------------------------------------------
Tabbed By: Valerie L.
e-mail: iloled@yahoo.com
Tuning: standard
Done by request. :)


[Verse] 

Bass doesn't come in until "Because the drugs never work."

G|----------------------------------|
D|----------------------------------|
A|-7\--7\--7\---2--0-----22222222---|
E|--------------------0-----------0-|


[Chorus]

G|------------------------------------------------------------------------------------------|
D|------------------------------------------------------------------------------------------|
A|----------------------------------------22-5-2-2-5-2-00-4-0-0-4-0---------------22222222--|
E|-00-4-0-0-4-0-00-4-0-0-4-0-00-4-0-0-4-0----------------------------00-4-0-0-4-0---------0-|


[Verse] 

G|----------------------------------|
D|----------------------------------|
A|-7\--7\--7\---2--0-----22222222---|
E|--------------------0-----------0-|


[Chorus]

G|------------------------------------------------------------------------------------------|
D|------------------------------------------------------------------------------------------|
A|----------------------------------------22-5-2-2-5-2-00-4-0-0-4-0---------------22222222--|
E|-00-4-0-0-4-0-00-4-0-0-4-0-00-4-0-0-4-0----------------------------00-4-0-0-4-0---------0-|


[Bridge]

G|-------------------22------------------------------------|
D|-------------22-44---44-22-------------------------------|
A|-------00-44----------------44--------22-44-55-44-22-00--|
E|-0-2-4--------------------------00-22--------------------|

G|---------------22----------------------------|
D|---------22-44---44-22-----------------------|
A|--00-44----------------44---2222222222222222-|
E|---------------------------------------------|


[Chorus]

G|------------------------------------------------------------------------------------------|
D|------------------------------------------------------------------------------------------|
A|----------------------------------------22-5-2-2-5-2-00-4-0-0-4-0---------------22222222--|
E|-00-4-0-0-4-0-00-4-0-0-4-0-00-4-0-0-4-0----------------------------00-4-0-0-4-0---------0-|

G|------------------------------------------------------------------------------------------|
D|------------------------------------------------------------------------------------------|
A|----------------------------------------22-5-2-2-5-2-00-4-0-0-4-0---------------22222222--|
E|-00-4-0-0-4-0-00-4-0-0-4-0-00-4-0-0-4-0----------------------------00-4-0-0-4-0---------0-|


************************************

| \  Slide down

************************************
Suggest correction
comments
print report bad tab
20 comments total. Showing first comments.
0 reply
jack12500 131 wrote on April 16 2007, 10:18 am

Greet tab thats why i voted it in

0 reply
LewisMasonx 1,741 wrote on April 16 2007, 01:30 pm

Great tab! And thank you for tabbing it! xD

0 reply
iloveamanda 10 wrote on April 21 2007, 11:49 pm

yyyyyyyyyyyeeeeeeeeeeeeeeesssssssssssssss

guest
You may want to rate the tab now too:
select rating
Please do not post tabs as comments. Select "correction" instead!