Oops, an error
Loading. Please wait.
We have an official Teenagers tab made by UG professional guitarists. Check out the tab »
×
54,292 views 3 this week
7 commentsread comments
1 2 3 4 5
x 12
add to favorites
×
Save as Personal and add changes to this tab that will be seen only by you. Learn more ›
×
You can save this tab as Personal to edit and correct it or add notes. All changes will be seen only by you. Learn more »
launch autoscroll
font size
0
reset
how to read this tab
guitar tuner
backing track
0:00
0:00
edit
Autoscroll
slow
fast
+/-
esc
set tempo
stop
Author
Tabbed By:: GNRAGE_2010
Email:bs-2010@hotmail.com

Tuning: Standard

|Update|08-28-07|--------------------------------------------------------
Made changes to fill and solo
-------------------------------------------------------------------------


Guitar 1

Intro/verse-
e|------------------0------------------------------0-----------|
B|------------------0------------------------------0-----------|
G|-------------------------------------------------------------|
D|-2-2-2-2--2---------------------2-2-2-2--2-------------------|
A|-2-2-4-2--4---------------------2-2-4-2--4-------------------|
E|-0-0-0-0--0--2/4----------------0-0-0-0--0--2/4--------------|
pm


e|-------------------|
B|-------------------|
G|-------------------|
D|-2-2-2-2-2-2-2-2---|
A|-2-2-4-2-5-2-4-2---|
E|-0-0-0-0-0-0-0-0---|
pm


e|--------------------0--------------------0--|
B|--------------------0--------------------0--|
G|--------------------------------------------|
D|-4-4-6-4--6---------------------------------|
A|-2-2-4-2--4--2/6--------7-7-9-7--9----------|
E|------------------------5-5-5-5--5--5/9-----|
pm

e|----------------------0--------------------------|
B|----------------------0--------------------------|
G|-------------------------------------------------|
D|--9-9-11-9---11----------------------------------|
A|--7-7--7-7----7--7/11-----9-9-11-9-12-9-11-9-----|
E|--------------------------7-7--7-7--7-7--7-7-----|
pm


e|--------------------------0------------------|
B|--------------------------0------------------|
G|---------------------------------------------|
D|-2-2-2-2---2---------------------------------|
A|-2-2-4-2---4---------------------------------|
E|-0-0-0-0---0---2/4---------------------------|
pm

Repeat Verse
2nd verse end on...
e|------------------|
B|------------------|
G|------------------|
D|--2---------------|
A|--2---------------|
E|--0---------------|

Fill
e|----------------------------|
B|------8-10-8----------------|
G|--7-9--------9--------------|
D|----------------------------|
A|----------------------------|
E|----------------------------|


Chorus
e|-------------------0-----------------------0----------|
B|-------------------0-----------------------0----------|
G|------------------------------------------------------|
D|-2-2-2-2-2---------------2-2-2-2-2--------------------|
A|-2-2-4-2-4---------------2-2-4-2-4--------------------|
E|-0-0-0-0-0--2/4----------0-0-0-0-0--2/4---------------|

e|-----------------------|
B|-----------------------|
G|-----------------------|
D|-2-2-2-2--2-2-2--------|
A|-2-2-4-2--4-2-4--------|
E|-0-0-0-0--0-0-0--------|

e|--------------------0--------------------0--|
B|--------------------0--------------------0--|
G|--------------------------------------------|
D|-4-4-6-4--6---------------------------------|
A|-2-2-4-2--4--2/6--------7-7-9-7--9----------|
E|------------------------5-5-5-5--5--5/9-----|


e|-----------------------0-------------------------|
B|-----------------------0-------------------------|
G|-------------------------------------------------|
D|--9-9-11-9---11----------------------------------|
A|--7-7--7-7----7--7/11-----9-9-11-9-12-9-11-9-----|
E|--------------------------7-7--7-7--7-7--7-7-----|

e|------------------|
B|------------------|
G|------------------|
D|--2---------------|
A|--2---------------|
E|--0---------------|


Verse
Chorus


Bridge/Solo
e|-----------------|
B|-----------------|
G|-----------------|
D|--2--4--6--------|
A|--2--4--6--------|
E|--0--2--4--------|

e|----------------------------------------------|
B|----------------------------------------------|
G|--14-14-14-14-14-14-14-14-14-14-14-14-14-14---|
D|---X--X--X--X--X--X--X--X--X--X--X--X--X--X---|
A|--12-12-12-12-12-12-12-12-12-12-12-12-12-12---|
E|----------------------------------------------|


e|-----------------------------------------|
B|-----------------------------------------|
G|--9-9-11-11--13--11--9--9--11--13--11--9-|
D|--X-X--X--X---X---X--X--X---X---X---X--X-|
A|--7-7--9--9--11---9--7--7---9--11---9--7-|
E|-----------------------------------------|


e|----------------------------------------------|
B|----------------------------------------------|
G|--14-14-14-14-14-14-14-14-14-14-14-14-14-14---|
D|---X--X--X--X--X--X--X--X--X--X--X--X--X--X---|
A|--12-12-12-12-12-12-12-12-12-12-12-12-12-12---|
E|----------------------------------------------|


e|---------------------------------------------------------|
B|---------------------------------------------------------|
G|--16-16-16-16---19-19-19-19----16-16-16-16-16-16-16-16---|
D|---X--X--X--X----X--X--X--X-----X--X--X--X--X--X--X--X---|
A|--13-13-13-13---17-17-17-17----13-13-13-13-13-13-13-13---|
E|---------------------------------------------------------|

Chorus 2x


Guitar 2

Verse 2
e|--------------------------------------|
B|--------------------------------------|
G|--------------------------------------|
D|--9-9-9-9--9-9-9-9----9-9-9-9---------|
A|--7-7-7-7--7-7-7-7----7-7-7-7---------|
E|--------------------------------------|
pm
   "drugs never work...."

e|-----------------------------|
B|-----------------------------|
G|-----------------------------|
D|-----------------------------|
A|--11-11-11-11--9-9--11-9-----|
E|-----------------------------|
pm

e|-------------------------------------------------------|
B|-------------------------------------------------------|
G|-------------------------------------------------------|
D|-------------------------------------------------------|
A|-12-12-12-12--11-9--11-11-9-7--7-7--6-6--7-9--11-9--7--|
E|-------------------------------------------------------|

Chorus
e|------------------------------------------|
B|------------------------------------------|
G|----9-9-8-9--4-6-8--9-9-8-9--4-6-8---9999-|
D|----x-x-x-x--x-x-x--x-x-x-x--x-x-x---xxxx-|
A| ---7-7-6-7--2-4-6--7-7-6-7--2-4-6---7777-|
E|------------------------------------------|


e|---------------------------------------------------------------|
B|---------------------------------------------------------------|
G|-13-13-13-13---11-11-13-11--11-9-11--14-14-14-14--14-13--------|
D|--x--x--x--x----x--x--x--x---x-x--x---x--x--x--x---x--x--------|
A|-11-11-11-11----9--9-11--9---9-7--9--12-12-12-12--12-11--------|
E|---------------------------------------------------------------|


e|-------------------------------------------------|
B|-------------------------------------------------|
G|-11-11-13-9--9-9--8-8-9-11-11-13-11--9-----------|
D|--x--x--x-x--x-x--x-x-x--x--x--x--x--x-----------|
A|--9--9-11-7--7-7--6-6-7--9--9-11--9--7-----------|
E|-------------------------------------------------|


Solo
e|--------------------------------------|
B|--------------------------------------|
G|--9--9-7-9-7-9-7--5-6-9--9--9-6-5-----|
D|--7----------------------7--7---------|
A| -------------------------------------|
E|--------------------------------------|

e|---------------------------------------------------------|
B|--12-12--8-9-12--15b-15b-15-12h15p12-10h12p10-8-p8-10p8--|
G|---9--9--9-9--9------------------------------------------|
D|---------------------------------------------------------|
A| --------------------------------------------------------|
E|---------------------------------------------------------|

e|------------------------------|
B|------------------------------|
G|--9--9-5-6-9--9-9--9-6-5-9----|
D|--7--7--------7-7--7----------|
A|------------------------------|
E|------------------------------|

e|-----------------------------------------------------------------------|
B|-----------------------------------------------------------------------|
G|-11b-11b-11b-11b-11b-11b-11b-11b-11b-11b-11b-11b--11b-11b-11-14-11-9~~\|
D|-----------------------------------------------------------------------|
A| ----------------------------------------------------------------------|
E|-----------------------------------------------------------------------|


verse
chorus
Suggest correction
Creating personal tab
Creating personal tab
You can edit any tab online and save it as your Personal.

You can edit, replace or remove any tab part or add personal notes – all changes will be seen only by you.

Personal tabs can be accessed anytime from any device, even offline.
Learn more »
comments
print report bad tab
7 comments total. Showing first comments.
0 reply
flyswatter33 10 Feb 14, 2007 11:26 AM

Good Tab. You need to get the solo in there though

0 reply
co&ca4 10 Mar 19, 2007 07:42 PM

i think you got the courus wrong ...but i could be wrong

0 reply
GNRAGE_2010 80 Mar 20, 2007 06:32 AM

Which chorus, the rythm or the lead?

guest
You may want to rate the tab now too:
select rating
Wanna post a correction for this tab? Suggest correction