Oops, an error
Loading. Please wait.
We have an official Teenagers tab made by UG professional guitarists. Check out the tab »
×
74,067 views 165 this week
30 commentsread comments
1 2 3 4 5
x 47
add to favorites
×
Save as Personal and add changes to this tab that will be seen only by you. Learn more ›
×
You can save this tab as Personal to edit and correct it or add notes. All changes will be seen only by you. Learn more »
launch autoscroll
font size
0
reset
how to read this tab
guitar tuner
backing track
0:00
0:00
edit
Autoscroll
slow
fast
+/-
esc
set tempo
stop
Author
Tuning: Standard

Guitar 1: Ray Toro
Guitar 2: Frank Iero

[Verse]
(Guitar 1)
 PM------------|     PM------------|     PM--------------------|   PM----|
E|----------------0-|----------------0-|-----------------|------------------|
B|----------------0-|----------------0-|-----------------|------------------|
G|------------------|------------------|-----------------|------------------|
D|-2-2-2-2--2-------|-2-2-2-2--2-------|-2-2-2-2-2-2-2-2-|-4-4-6-4--4-------|
A|-2-2-4-2--2-------|-2-2-4-2--2-------|-2-2-4-2-5-2-4-2-|-2-2-2-2--2-2/6-9-|
E|-0-0-0-0--0-2/4---|-0-0-0-0--0-2/4---|-0-0-0-0-0-0-0-0-|----------------7-|

  PM------------|     PM-------------|
E|-----------------0-|----------------------|
B|-----------------0-|----------------------|
G|-------------------|----------------------|
D|-------------------|-9-9-11-9---9---------|
A|-7-7-9-7---7-------|-7-7--7-7---7-7/11-14-|
E|-5-5-5-5---5-5/9---|-------------------12-|

  PM---------------------------------|
E|--------------------|-----------------0-|
B|--------------------|-----------------0-|
G|--------------------|-------------------|
D|--------------------|-2-2-2-2---2-------|
A|-9-9-11-9-12-9-11-9-|-2-2-4-2---2-------|
E|-7-7--7-7--7-7--7-7-|-0-0-0-0---0-2/4---|

  PM------------|     PM------------|     PM--------------------|   PM----|
E|----------------0-|----------------0-|-----------------|------------------|
B|----------------0-|----------------0-|-----------------|------------------|
G|------------------|------------------|-----------------|------------------|
D|-2-2-2-2--2-------|-2-2-2-2--2-------|-2-2-2-2-2-2-2-2-|-4-4-6-4--4-----7-|
A|-2-2-4-2--2-------|-2-2-4-2--2-------|-2-2-4-2-5-2-4-2-|-2-2-2-2--2-2/6-6-|
E|-0-0-0-0--0-2/4---|-0-0-0-0--0-2/4---|-0-0-0-0-0-0-0-0-|------------------|

(Guitar 2)
  PM----|             PM----|             PM------------------------|
E|-------------------|-------------------|-----------------|----------------|
B|-------------------|-------------------|-----------------|----------------|
G|-------------------|-------------------|-----------------|----------------|
D|-------------------|-------------------|---------6-6-6-6-|-4-4-6-4--------|
A|-7-7-7-7-----------|-7-7-7-7-----------|-7-7-7-7---------|----------------|
E|-------------------|-------------------|-----------------|----------------|

(Guitar 1)
  PM----------------|     PM---------------|
E|-----------------0-|----------------------|
B|-----------------0-|----------------------|
G|-------------------|----------------------|
D|-------------------|-9-9-11-9---9---------|
A|-7-7-9-7---7-------|-7-7--7-7---7-7/11-14-|
E|-5-5-5-5---5-5/9---|-------------------12-|

  PM-----------------------------------|
E|-------------------|----------------------|
B|-------------------|----------------------|
G|-------------------|----------------------|
D|-7-7-7-7---7---6---|-4-4--6---------------|
A|-------------------|--------7---7----7----|
E|-------------------|----------------------|

  PM-------------------|
E|----------------------|-----------------------|
B|----------------------|-----------9-----------|
G|----------------------|-------8/9---11/9-8----|
D|----------------------|-2------------------9--|
A|-9-9-11-9-12---9-11-9-|-2---------------------|
E|-7-7--7-7--7---7--7-7-|-0---------------------|

 PM--------------------|    PM    PM
E|----------------------|-----------------------|
B|----------------------|-----------------------|
G|----------------------|-----------------------|
D|--------4----4/6--4---|-----------------------|
A|-6-6--7---------------|-7-----7---------------|
E|----------------------|-----------------------|

[Chorus]
(Guitar 1)
e|---------------0-|---------------0-|
B|---------------0-|---------------0-|
G|-----------------|-----------------|
D|-2-2-2-2---2-----|-2-2-2-2---2-----|
A|-2-2-4-2---2-----|-2-2-4-2---2-----|
E|-0-0-0-0---0-4---|-0-0-0-0---0-4---|

(Guitar 2)
e|-----------------|-----------------|
B|-----------------|-----------------|
G|-9-9-8-9---4-6-8-|-9-9-8-9---4-6-8-|
D|-----------------|-----------------|
A|-7-7-6-7---2-4-6-|-7-7-6-7---2-4-6-|
E|-----------------|-----------------|

(Guitar 1)
e|---------------------|------------------------|
B|---------------------|------------------------|
G|---------------------|--4--4--4--4----4-4--4--|
D|-2-2-2-2--2--2--2--2-|--4--4--4--4----4-4--4--|
A|-2-2-2-2--2--2--2--2-|--2--2--2--2----2-2--2--|
E|-0-0-0-0--0--0--0--0-|------------------------|

(Guitar 2)
e|---------------------|------------------------|
B|---------------------|------------------------|
G|-9-9-9-9-13-13-13-13-|-11-11-13-11---11-9-11--|
D|---------------------|------------------------|
A|-7-7-7-7-11-11-11-11-|--9--9-11--9----9-7--9--|
E|---------------------|------------------------|

(Guitar 1)
e|-----------------------|--------------------|
B|-----------------------|--------------------|
G|-----------------------|--------------------|
D|--7--7--7--7----7--9-7-|--2--2--2-2---2-2-2-|
A|--7--7--7--7----7--9-7-|--2--2--2-2---2-2-2-|
E|--5--5--5--5----5--7-5-|--0--0--0-0---0-0-0-|

(Guitar 2)
e|-----------------------|--------------------|
B|-----------------------|--------------------|
G|-14-14-14-14---14-13---|-11-11-13-9---9-9---|
D|-----------------------|--------------------|
A|-12-12-12-12---12-11---|--9--9-11-7---7-7---|
E|-----------------------|--------------------|

(Guitar 1)
e|-----------------------|----------|
B|-----------------------|----------|
G|-----------------------|----------|
D|-7-7-7--7-------6--6-4-|-2--------|
A|-7-7-7--7-------6--6-4-|-2--------|
E|-5-5-5--5-------4--4-2-|-0--------|

(Guitar 2)
e|-----------------------|----------|
B|-----------------------|----------|
G|-8-8-9-11---11/13-11---|-9--------|
D|-----------------------|----------|
A|-6-6-7--9----9/11--9---|-7--------|
E|-----------------------|----------|

[Verse]
(Guitar 1)
  PM------------|     PM------------|   PM---------------------|
E|----------------0-|----------------0-|-----------------|------------------|
B|----------------0-|----------------0-|-----------------|------------------|
G|------------------|------------------|-----------------|------------------|
D|-2-2-2-2--2-------|-2-2-2-2--2-------|-2-2-2-2-2-2-2-2-|-4-4-6-4--4-----7-|
A|-2-2-4-2--2-------|-2-2-4-2--2-------|-2-2-4-2-5-2-4-2-|-2-2-2-2--2-2/6-6-|
E|-0-0-0-0--0-2/4---|-0-0-0-0--0-2/4---|-0-0-0-0-0-0-0-0-|------------------|

(Guitar 2)
  PM----|             PM----|            PM-----------------------|
E|-------------------|-------------------|-----------------|----------------|
B|-------------------|-------------------|-----------------|----------------|
G|-------------------|-------------------|-----------------|----------------|
D|-------------------|-------------------|---------6-6-6-6-|-4-4-6-4--------|
A|-7-7-7-7-----------|-7-7-7-7-----------|-7-7-7-7---------|----------------|
E|-------------------|-------------------|-----------------|----------------|

(Guitar 1)
  PM----------------|     PM---------------|
E|-----------------0-|----------------------|
B|-----------------0-|----------------------|
G|-------------------|----------------------|
D|-------------------|-9-9-11-9---9---------|
A|-7-7-9-7---7-------|-7-7--7-7---7-7/11-14-|
E|-5-5-5-5---5-5/9---|-------------------12-|

(Guitar 2)
 PM----------------------------------------|
E|-------------------|----------------------|
B|-------------------|----------------------|
G|-------------------|----------------------|
D|-7-7-7-7---7---6---|-4-4--6---------------|
A|-------------------|--------7---7----7----|
E|-------------------|----------------------|

(Guitar 1)                           
PM--------------------|
E|----------------------|
B|----------------------|
G|----------------------|
D|----------------------|
A|-9-9-11-9-12---9-11-9-|
E|-7-7--7-7--7---7--7-7-|

(Guitar 2)
PM------------------|  
E|------------------------|
B|------------------------|
G|------------------------|
D|--------4----4/6--4-----|
A|-6-6--7-------------7-7-|
E|------------------------|

(Guitar 1)
e|---------------------------|
B|-----------9---------------|
G|-------8/9---11/9-8--------|
D|-2------------------9----2-|
A|-2-----------------------2-|
E|-0-----------------------0-|

[Chorus]
(Guitar 1)
e|---------------0-|---------------0-|
B|---------------0-|---------------0-|
G|-----------------|-----------------|
D|-2-2-2-2---2-----|-2-2-2-2---2-----|
A|-2-2-4-2---2-----|-2-2-4-2---2-----|
E|-0-0-0-0---0-4---|-0-0-0-0---0-4---|

(Guitar 2)
e|-----------------|-----------------|
B|-----------------|-----------------|
G|-9-9-8-9---4-6-8-|-9-9-8-9---4-6-8-|
D|-----------------|-----------------|
A|-7-7-6-7---2-4-6-|-7-7-6-7---2-4-6-|
E|-----------------|-----------------|

(Guitar 1)
e|---------------------|------------------------|
B|---------------------|------------------------|
G|---------------------|--4--4--4--4----4-4--4--|
D|-2-2-2-2--2--2--2--2-|--4--4--4--4----4-4--4--|
A|-2-2-2-2--2--2--2--2-|--2--2--2--2----2-2--2--|
E|-0-0-0-0--0--0--0--0-|------------------------|

(Guitar 2)
e|---------------------|------------------------|
B|---------------------|------------------------|
G|-9-9-9-9-13-13-13-13-|-11-11-13-11---11-9-11--|
D|---------------------|------------------------|
A|-7-7-7-7-11-11-11-11-|--9--9-11--9----9-7--9--|
E|---------------------|------------------------|

(Guitar 1)
e|-----------------------|--------------------|
B|-----------------------|--------------------|
G|-----------------------|--------------------|
D|--7--7--7--7----7--9-7-|--2--2--2-2---2-2-2-|
A|--7--7--7--7----7--9-7-|--2--2--2-2---2-2-2-|
E|--5--5--5--5----5--7-5-|--0--0--0-0---0-0-0-|

(Guitar 2)
e|-----------------------|--------------------|
B|-----------------------|--------------------|
G|-14-14-14-14---14-13---|-11-11-13-9---9-9---|
D|-----------------------|--------------------|
A|-12-12-12-12---12-11---|--9--9-11-7---7-7---|
E|-----------------------|--------------------|

(Guitar 1)
e|-----------------------|----------|
B|-----------------------|----------|
G|-----------------------|----------|
D|-7-7-7--7-------6--6-4-|-2--------|
A|-7-7-7--7-------6--6-4-|-2--------|
E|-5-5-5--5-------4--4-2-|-0--------|

(Guitar 2)
e|-----------------------|----------|
B|-----------------------|----------|
G|-8-8-9-11---11/13-11---|-9--------|
D|-----------------------|----------|
A|-6-6-7--9----9/11--9---|-7--------|
E|-----------------------|----------|

[Pre-Solo]
(Guitar 2)
e|---------|
B|---------|
G|---------|
D|---------|
A|---------|
E|--0--2-4-|

[Solo]
(This sounds about right to me. Tell me if I missed anything)
(Guitar 1)
e|----------------------|---------------------------|
B|----------------7-----|-------7---7h-9----7h-9----|
G|--9---9-7-9-7-9-7---5h|--6--9-7---9-(9)---9-(9)---|
D|-11-----------9-----7-|-(7)-9---------------------|
A|----------------------|---------------------------|
E|----------------------|---------------------------|

(Guitar 2)
e|----------------------|---------------------------|
B|----------------------|---------------------------|
G|----------------------|---------------------------|
D|--7-7-7---7---7-7-7-7-|--7--7-7-7----7--7----7--7-|
A|--7-7-7---7---7-7-7-7-|--7--7-7-7----7--7----7--7-|
E|--5-5-5---5---5-5-5-5-|--5--5-5-5----5--5----5--5-|

(Guitar 1)                 
e|-12------------12---------|----------------------------------------|
B|-12------------12---15b17-|-(15)-15-12-15-12-10-12-10-8-10b12rp8---|
G|------14-12-13------------|----------------------------------------|
D|--------------------------|----------------------------------------|
A|--------------------------|----------------------------------------|
E|--------------------------|----------------------------------------|

(Guitar 2)
e|--------------------------|----------------------------------------|
B|--------------------------|----------------------------------------|
G|--------------------------|----------------------------------------|
D|--2-2--2--2--2--2-2--2----|---2---2--2-----2-----2----2--2-----2---|
A|--2-2--2--2--2--2-2--2----|---2---2--2-----2-----2----2--2-----2---|
E|--0-0--0--0--0--0-0--0----|---0---0--0-----0-----0----0--0-----0---|

(Guitar 1)
e|-----------------|--------------------|-----------------------------------|
B|-----------------|--------------------|-7---------------------------------|
G|-9---7-5-6-9---9-|-(9)-9-7-5-6-9-7\---|-9b11---9b11---9b11-9b11-9b11-9b11-|
D|-9---------9---9-|-(9)-9-------9-7\---|-----------------------------------|
A|-----------------|--------------------|-----------------------------------|
E|-----------------|--------------------|-----------------------------------|

(Guitar 2)
e|-----------------|--------------------|-----------------------------------|
B|-----------------|--------------------|-----------------------------------|
G|-----------------|--------------------|-----------------------------------|
D|-7-7-7-7-7-7-7-7-|--7--7-7-7-7-7-7--7-|-9----9-9----9-9----9----9----9----|
A|-7-7-7-7-7-7-7-7-|--7--7-7-7-7-7-7--7-|-9----9-9----9-9----9----9----9----|
E|-5-5-5-5-5-5-5-5-|--5--5-5-5-5-5-5--5-|-7----7-7----7-7----7----7----7----|

(Guitar 1)
e|------------------------------------------------|
B|------------------------------------------------|
G|-9b11-9b11-9b11-9b11-9b11-9pb10.5-9pb10-9pb9.5--|
D|------------------------------------------------|
A|------------------------------------------------|
E|------------------------------------------------|

e|------------------------------------------------|
B|------------------------------------------------|
G|------------------------------------------------|
D|-9----9----9----9----9----9-------9-----9-------|
A|-9----9----9----9----9----9-------9-----9-------|
E|-7----7----7----7----7----7-------7-----7-------|

[Chorus]
(Guitar 1)
e|---------------0-|---------------0-|
B|---------------0-|---------------0-|
G|-----------------|-----------------|
D|-2-2-2-2---2-----|-2-2-2-2---2-----|
A|-2-2-4-2---2-----|-2-2-4-2---2-----|
E|-0-0-0-0---0-4---|-0-0-0-0---0-4---|

(Guitar 2)
e|-----------------|-----------------|
B|-----------------|-----------------|
G|-9-9-8-9---4-6-8-|-9-9-8-9---4-6-8-|
D|-----------------|-----------------|
A|-7-7-6-7---2-4-6-|-7-7-6-7---2-4-6-|
E|-----------------|-----------------|

(Guitar 1)
e|---------------------|------------------------|
B|---------------------|------------------------|
G|---------------------|--4--4--4--4----4-4--4--|
D|-2-2-2-2--2--2--2--2-|--4--4--4--4----4-4--4--|
A|-2-2-2-2--2--2--2--2-|--2--2--2--2----2-2--2--|
E|-0-0-0-0--0--0--0--0-|------------------------|

(Guitar 2)
e|---------------------|------------------------|
B|---------------------|------------------------|
G|-9-9-9-9-13-13-13-13-|-11-11-13-11---11-9-11--|
D|---------------------|------------------------|
A|-7-7-7-7-11-11-11-11-|--9--9-11--9----9-7--9--|
E|---------------------|------------------------|

(Guitar 1)
e|-----------------------|--------------------|
B|-----------------------|--------------------|
G|-----------------------|--------------------|
D|--7--7--7--7----7--9-7-|--2--2--2-2---2-2-2-|
A|--7--7--7--7----7--9-7-|--2--2--2-2---2-2-2-|
E|--5--5--5--5----5--7-5-|--0--0--0-0---0-0-0-|

(Guitar 2)
e|-----------------------|--------------------|
B|-----------------------|--------------------|
G|-14-14-14-14---14-13---|-11-11-13-9---9-9---|
D|-----------------------|--------------------|
A|-12-12-12-12---12-11---|--9--9-11-7---7-7---|
E|-----------------------|--------------------|

(Guitar 1)
e|-----------------------|----------|
B|-----------------------|----------|
G|-----------------------|----------|
D|-7-7-7--7-------6--6-4-|-2--------|
A|-7-7-7--7-------6--6-4-|-2--------|
E|-5-5-5--5-------4--4-2-|-0--------|

(Guitar 2)
e|-----------------------|----------|
B|-----------------------|----------|
G|-8-8-9-11---11/13-11---|-9--------|
D|-----------------------|----------|
A|-6-6-7--9----9/11--9---|-7--------|
E|-----------------------|----------|

(Guitar 1)
e|---------------0-|---------------0-|
B|---------------0-|---------------0-|
G|-----------------|-----------------|
D|-2-2-2-2---2-----|-2-2-2-2---2-----|
A|-2-2-4-2---2-----|-2-2-4-2---2-----|
E|-0-0-0-0---0-4---|-0-0-0-0---0-4---|

(Guitar 2)
e|-----------------|-----------------|
B|-----------------|-----------------|
G|-9-9-8-9---4-6-8-|-9-9-8-9---4-6-8-|
D|-----------------|-----------------|
A|-7-7-6-7---2-4-6-|-7-7-6-7---2-4-6-|
E|-----------------|-----------------|

(Guitar 1)
e|---------------------|------------------------|
B|---------------------|------------------------|
G|---------------------|--4--4--4--4----4-4--4--|
D|-2-2-2-2--2--2--2--2-|--4--4--4--4----4-4--4--|
A|-2-2-2-2--2--2--2--2-|--2--2--2--2----2-2--2--|
E|-0-0-0-0--0--0--0--0-|------------------------|

(Guitar 2)
e|---------------------|------------------------|
B|---------------------|------------------------|
G|-9-9-9-9-13-13-13-13-|-11-11-13-11---11-9-11--|
D|---------------------|------------------------|
A|-7-7-7-7-11-11-11-11-|--9--9-11--9----9-7--9--|
E|---------------------|------------------------|

(Guitar 1)
e|-----------------------|--------------------|
B|-----------------------|--------------------|
G|-----------------------|--------------------|
D|--7--7--7--7----7--9-7-|--2--2--2-2---2-2-2-|
A|--7--7--7--7----7--9-7-|--2--2--2-2---2-2-2-|
E|--5--5--5--5----5--7-5-|--0--0--0-0---0-0-0-|

(Guitar 2)
e|-----------------------|--------------------|
B|-----------------------|--------------------|
G|-14-14-14-14---14-13---|-11-11-13-9---9-9---|
D|-----------------------|--------------------|
A|-12-12-12-12---12-11---|--9--9-11-7---7-7---|
E|-----------------------|--------------------|

(Guitar 1)
e|----------------------------------------------|
B|-------------------------------9--------------|
G|---------------------------8/9---11/9-8---9---|
D|-7-7-7--7-------6--6-4--2---------------9-----|
A|-7-7-7--7-------6--6-4--2---------------------|
E|-5-5-5--5-------4--4-2--0---------------------|

(Guitar 2)
e|----------------------------------------------|
B|----------------------------------------------|
G|-8-8-9-11---11/13-11----9---------------------|
D|------------------------------------------2---|
A|-6-6-7--9----9/11--9----7-----------------2---|
E|------------------------------------------0---|

[Ending]
(Guitar 1)
e|--------------------|
B|-----9--------------|
G|-8/9---11/9-8---9---|
D|--------------9-----|
A|--------------------|
E|--------------------|

(Guitar 2)
e|----|
B|----|
G|----|
D|-2--|
A|-2--|
E|-0--|


************************************

| /    Slide up
| h    Hammer-on
| (n)  Ghost note
| b    Bend
| \    Slide down
| pb   Pre-bend

************************************
Suggest correction
Creating personal tab
Creating personal tab
You can edit any tab online and save it as your Personal.

You can edit, replace or remove any tab part or add personal notes – all changes will be seen only by you.

Personal tabs can be accessed anytime from any device, even offline.
Learn more »
comments
print report bad tab
30 comments total. Showing first comments.
+4 reply
kiefermatot 10,367 Jun 11, 2007 04:08 PM

No, this is a text-based tab. So it is not your Powertab.

I don't have Powertab. I use Guitar Pro (notice the hundreds of GP files under my name), so therefore I would not be able to "copy" your tab, like you are accusing me of.

Although, I did take the liberty of downloading Powertab to research, and upon finishing my investigation, I noticed some parts of this do look similar to your Powertab, but not similar enough to go off and jump to conclusions, like you are. Know your facts before you start an argument.

If you have something constructive to say about my tab, it will be more than welcome.

Good day, sir.

0 reply
mkorklan 10 Jun 14, 2007 07:37 AM

Nice tab.

0 reply
sphinx_Godcares09 68 Jun 24, 2007 01:08 AM

hey, kiefermatot, i think your tab is great but i can't finnish it because i can't understand the timing. i mean, it would be a lot better if you'd put lyrics w/ the tab.

thanks.

and, oh, im a beginner. pls pardon me for this petty thing. but it would really be appreciated if you could help me out. thanks. ^-^

guest
You may want to rate the tab now too:
select rating
Wanna post a correction for this tab? Suggest correction