Oops, an error
Loading. Please wait.
We have an official Teenagers tab made by UG professional guitarists. Check out the tab »
×
16,074 views 3 this week
2 commentsread comments
1 2 3 4 5
x 7
add to favorites
×
Save as Personal and add changes to this tab that will be seen only by you. Learn more ›
×
You can save this tab as Personal to edit and correct it or add notes. All changes will be seen only by you. Learn more »
launch autoscroll
font size
0
reset
how to read this tab
guitar tuner
backing track
0:00
0:00
edit
Autoscroll
slow
fast
+/-
esc
set tempo
stop
Difficulty
intermediate
Teenagers/My chemical romance

Guitar 1: Ray Toro
Guitar 2: Frank Iero

----------------------------------------------------------------------------
                               VERSO 1
----------------------------------------------------------------------------

Gutar 1
e----------------------0---------------------------0---|
B----------------------0---------------------------0---|
G------------------------------------------------------| (Wht tape)
D------------------------------------------------------|
A--2-2--4-2X----2-2------------2-2--4-2X----2-2--------|
E--0-0--0-0X----0-0(4)---------0-0--0-0X----0-0(4)-----|

Gutar 1
e--------------------------------------------------|
B--------------------------------------------------|
G--------------------------------------------------| (Wht tape)
D--------------------------------------------------|
A--2-2--4-2-5-2-4-2---x----9-9--11-9x----9-9-----9-|
E--0-0--0-0-0-0-0-0---x----7-7--7--7x----7-7(11)-7-|

Gutar 1
e--------------------------------------------------0---|
B--------------------------------------------------0---|
G------------------------------------------------------| (Wht tape)
D------------------------------------------------------|
A--7-7--9-7X----7-7----7-------2-2--4-2X----2-2--------|
E--5-5--5-5X----5-5(9)-5-------0-0--0-0X----0-0(4)-----|

Gutar 1
e--------------------------------------------0---|
B--------------------------------------------0---|
G------------------------------------------------|(Wht tape)
D------------------------------------------------|
A--9-9--11-9-12-9-11-9---2-2--4-2x----2-2--------|
E--7-7--7--7-7--7-7--7---0-0--0-0x----0-0(4)-----|


Gutar 1
e----------------------0---------------------------0---|
B----------------------0---------------------------0---|
G------------------------------------------------------|
D------------------------------------------------------|
A--2-2--4-2X----2-2------------2-2--4-2X----2-2--------|
E--0-0--0-0X----0-0(4)---------0-0--0-0X----0-0(4)-----|

Gutar 1
e--------------------------------------------------|
B--------------------------------------------------|
G--------------------------------------------------|
D--------------------------------------------------|
A--2-2--4-2-5-2-4-2---x----9-9--11-9x----9-9-----9-|
E--0-0--0-0-0-0-0-0---x----7-7--7--7x----7-7(11)-7-|

Gutar 1
e--------------------------------------------------0---|
B--------------------------------------------------0---|
G------------------------------------------------------|
D------------------------------------------------------|
A--7-7--9-7X----7-7----7-------2-2--4-2X----2-2--------|
E--5-5--5-5X----5-5(9)-5-------0-0--0-0X----0-0(4)-----|

Gutar 1
e---------------------------|
B---------------------------|
G---------------------------|
D------------------------2--|
A--9-9--11-9-12-9-11-9---2--|
E--7-7--7--7-7--7-7--7---0--|


HOLD

----------------------------------------------------------------------------
                               PRE CHORUS
----------------------------------------------------------------------------

Gutar 2
e--2s3s2--2--|
B--0s0s0--0--|
G--2s3s2--2--|
D------------|
A------------|
E------------|

----------------------------------------------------------------------------
                                 CHORUS
----------------------------------------------------------------------------

Gutar 1
e----------------------0---------------------------0---|
B----------------------0---------------------------0---|
G------------------------------------------------------|
D------------------------------------------------------|
A--2-2--4-2X----2-2------------2-2--4-2X----2-2--------|
E--0-0--0-0X----0-0(4)---------0-0--0-0X----0-0(4)-----|

Gutar 1
e--------------------------------------------------|
B--------------------------------------------------|
G--------------------------------------------------|
D--------------------------------------------------|
A--2-2--4-2-5-2-4-2---x----9-9--11-9x----9-9-----9-|
E--0-0--0-0-0-0-0-0---x----7-7--7--7x----7-7(11)-7-|

Gutar 1
e--------------------------------------------------0---|
B--------------------------------------------------0---|
G------------------------------------------------------|
D------------------------------------------------------|
A--7-7--9-7X----7-7----7-------2-2--4-2X----2-2--------|
E--5-5--5-5X----5-5(9)-5-------0-0--0-0X----0-0(4)-----|

Gutar 1
e---------------------------|
B---------------------------|
G---------------------------|
D------------------------2--|
A--9-9--11-9-12-9-11-9---2--|
E--7-7--7--7-7--7-7--7---0--|

Gutar 2
e------------------------------------------------------|
B------------------------------------------------------|
G--9-9--8-9--------------------9-9--8-9----------------|
D--x-x--x-x--------------------x-x--x-x----------------|
A--7-7--6-7------------6-------7-7--6-7------------6---|
E---------------7-9-------------------------7-9--------|

Gutar 2
e----------------------------------------------------------|
B----------------------------------------------------------|
G--9------13-----11-11-13--11---14----------13-11-11--13-7-|
D--x(x4)--x-(4)--x--x--x---x----x-(x4)x(x2)-x--x--x---x--x-|
A--7------11-----9--9--11--9----12----------11-9--9---11-9-|
E----------------------------------------------------------|

Gutar 2
e-----------------------------|
B-----------------------------|
G--8------9------11-13-11s-9--|
D--x(x4)--x(x4)--x--x--x-s-x--|
A--6------7------9--11-9-s-7--|
E-----------------------------|

HOLD

----------------------------------------------------------------------------
                                 VERSO 2
----------------------------------------------------------------------------

Gutar 1
e----------------------0---------------------------0---|
B----------------------0---------------------------0---|
G------------------------------------------------------| (Wht tape)
D------------------------------------------------------|
A--2-2--4-2X----2-2------------2-2--4-2X----2-2--------|
E--0-0--0-0X----0-0(4)---------0-0--0-0X----0-0(4)-----|

Gutar 1
e--------------------------------------------------|
B--------------------------------------------------|
G--------------------------------------------------| (Wht tape)
D--------------------------------------------------|
A--2-2--4-2-5-2-4-2---x----9-9--11-9x----9-9-----9-|
E--0-0--0-0-0-0-0-0---x----7-7--7--7x----7-7(11)-7-|

Gutar 1
e--------------------------------------------------0---|
B--------------------------------------------------0---|
G------------------------------------------------------| (Wht tape)
D------------------------------------------------------|
A--7-7--9-7X----7-7----7-------2-2--4-2X----2-2--------|
E--5-5--5-5X----5-5(9)-5-------0-0--0-0X----0-0(4)-----|


Gutar 1
e---------------------------|
B---------------------------|
G---------------------------|(Wht tape)
D------------------------2--|
A--9-9--11-9-12-9-11-9---2--|
E--7-7--7--7-7--7-7--7---0--|

HOLD


----------------------------------------------------------------------------
                               PRE CHORUS
----------------------------------------------------------------------------

Gutar 2
e--2s3s2--2--|
B--0s0s0--0--|
G--2s3s2--2--|
D------------|
A------------|
E------------|

----------------------------------------------------------------------------
                                 CHORUS
----------------------------------------------------------------------------

Gutar 1
e----------------------0---------------------------0---|
B----------------------0---------------------------0---|
G------------------------------------------------------|
D------------------------------------------------------|
A--2-2--4-2X----2-2------------2-2--4-2X----2-2--------|
E--0-0--0-0X----0-0(4)---------0-0--0-0X----0-0(4)-----|

Gutar 1
e--------------------------------------------------|
B--------------------------------------------------|
G--------------------------------------------------|
D--------------------------------------------------|
A--2-2--4-2-5-2-4-2---x----9-9--11-9x----9-9-----9-|
E--0-0--0-0-0-0-0-0---x----7-7--7--7x----7-7(11)-7-|

Gutar 1
e--------------------------------------------------0---|
B--------------------------------------------------0---|
G------------------------------------------------------|
D------------------------------------------------------|
A--7-7--9-7X----7-7----7-------2-2--4-2X----2-2--------|
E--5-5--5-5X----5-5(9)-5-------0-0--0-0X----0-0(4)-----|

Gutar 1
e---------------------------|
B---------------------------|
G---------------------------|
D------------------------2--|
A--9-9--11-9-12-9-11-9---2--|
E--7-7--7--7-7--7-7--7---0--|

Gutar 2
e------------------------------------------------------|
B------------------------------------------------------|
G--9-9--8-9--------------------9-9--8-9----------------|
D--x-x--x-x--------------------x-x--x-x----------------|
A--7-7--6-7------------6-------7-7--6-7------------6---|
E---------------7-9-------------------------7-9--------|

Gutar 2
e----------------------------------------------------------|
B----------------------------------------------------------|
G--9------13-----11-11-13--11---14----------13-11-11--13-7-|
D--x(x4)--x-(4)--x--x--x---x----x-(x4)x(x2)-x--x--x---x--x-|
A--7------11-----9--9--11--9----12----------11-9--9---11-9-|
E----------------------------------------------------------|

Gutar 2
e-----------------------------|
B-----------------------------|
G--8------9------11-13-11s-9--|
D--x(x4)--x(x4)--x--x--x-s-x--|
A--6------7------9--11-9-s-7--|
E-----------------------------|

HOLD

----------------------------------------------------------------------------
                                 PRE SOLO
----------------------------------------------------------------------------

Gutar 2
e-----------|
B-----------|
G-----------|
D-----------|
A-----------|
E--0--2--4--|

----------------------------------------------------------------------------
                                   SOLO
----------------------------------------------------------------------------

Gutar 1
e--5------5---------5--7----------12----------12--|
B--5------5---------5--7----------12----------12--|
G----7^^----7---5-6-------9-7s8------14-12-13-----|
D-------------------------------------------------|
A-------------------------------------------------|
E-------------------------------------------------|

Gutar 1
e-------------------------------------------|
B--15^^(15)---12-15-12-10-12-10-8-10-8-9----|
G----------------------------------------9--|
D-------------------------------------------|
A-------------------------------------------|
E-------------------------------------------|

Gutar 1
e--5--------5--5-5--------5--7---------------------------|
B--5--------5--5-5--------5--7--7-7----------------------|
G----7-5-6---------7-5-6--------9-9^^(x12)-----9----^s1--|
D--------------------------------------------------------|
A--------------------------------------------------------|
E--------------------------------------------------------|

Gutar 2
e------------------------------------|
B------------------------------------|
G------------------------------------|
D--7777777777777777777777777777777222
A--7777777777777777777777777777777222
E--5555555555555555555555555555555000

Gutar 2
e------------------------------------|
B------------------------------------|
G------------------------------------|
D--2222222222222222222222222222222222
A--2222222222222222222222222222222222
E--0000000000000000000000000000000000

Gutar 2
e----------------------------------------------------------|
B----------------------------------------------------------|
G----------------------------------------------------------|
D--77777777777777777777777779999999999999999999999---2-----|
A--77777777777777777777777777999999999999999999999---2-----|
E--55555555555555555555555557777777777777777777777---0-----|

HOLD


----------------------------------------------------------------------------
                                 CHORUS
----------------------------------------------------------------------------

Gutar 1
e----------------------0---------------------------0---|
B----------------------0---------------------------0---|
G------------------------------------------------------|
D------------------------------------------------------|
A--2-2--4-2X----2-2------------2-2--4-2X----2-2--------|
E--0-0--0-0X----0-0(4)---------0-0--0-0X----0-0(4)-----|

Gutar 1
e--------------------------------------------------|
B--------------------------------------------------|
G--------------------------------------------------|
D--------------------------------------------------|
A--2-2--4-2-5-2-4-2---x----9-9--11-9x----9-9-----9-|
E--0-0--0-0-0-0-0-0---x----7-7--7--7x----7-7(11)-7-|

Gutar 1
e--------------------------------------------------0---|
B--------------------------------------------------0---|
G------------------------------------------------------|
D------------------------------------------------------|
A--7-7--9-7X----7-7----7-------2-2--4-2X----2-2--------|
E--5-5--5-5X----5-5(9)-5-------0-0--0-0X----0-0(4)-----|

Gutar 1
e---------------------------|
B---------------------------|
G---------------------------|
D------------------------2--|
A--9-9--11-9-12-9-11-9---2--|
E--7-7--7--7-7--7-7--7---0--|

Gutar 2
e------------------------------------------------------|
B------------------------------------------------------|
G--9-9--8-9--------------------9-9--8-9----------------|
D--x-x--x-x--------------------x-x--x-x----------------|
A--7-7--6-7------------6-------7-7--6-7------------6---|
E---------------7-9-------------------------7-9--------|

Gutar 2
e----------------------------------------------------------|
B----------------------------------------------------------|
G--9------13-----11-11-13--11---14----------13-11-11--13-7-|
D--x(x4)--x-(4)--x--x--x---x----x-(x4)x(x2)-x--x--x---x--x-|
A--7------11-----9--9--11--9----12----------11-9--9---11-9-|
E----------------------------------------------------------|

Gutar 2
e-----------------------------|
B-----------------------------|
G--8------9------11-13-11s-9--|
D--x(x4)--x(x4)--x--x--x-s-x--|
A--6------7------9--11-9-s-7--|
E-----------------------------|

----------------------------------------------------------------------------
                                 CHORUS
----------------------------------------------------------------------------

Gutar 1
e----------------------0---------------------------0---|
B----------------------0---------------------------0---|
G------------------------------------------------------|
D------------------------------------------------------|
A--2-2--4-2X----2-2------------2-2--4-2X----2-2--------|
E--0-0--0-0X----0-0(4)---------0-0--0-0X----0-0(4)-----|

Gutar 1
e--------------------------------------------------|
B--------------------------------------------------|
G--------------------------------------------------|
D--------------------------------------------------|
A--2-2--4-2-5-2-4-2---x----9-9--11-9x----9-9-----9-|
E--0-0--0-0-0-0-0-0---x----7-7--7--7x----7-7(11)-7-|

Gutar 1
e--------------------------------------------------0---|
B--------------------------------------------------0---|
G------------------------------------------------------|
D------------------------------------------------------|
A--7-7--9-7X----7-7----7-------2-2--4-2X----2-2--------|
E--5-5--5-5X----5-5(9)-5-------0-0--0-0X----0-0(4)-----|

Gutar 1
e---------------------------|
B---------------------------|
G---------------------------|
D------------------------2--|
A--9-9--11-9-12-9-11-9---2--|
E--7-7--7--7-7--7-7--7---0--|

Gutar 2
e------------------------------------------------------|
B------------------------------------------------------|
G--9-9--8-9--------------------9-9--8-9----------------|
D--x-x--x-x--------------------x-x--x-x----------------|
A--7-7--6-7------------6-------7-7--6-7------------6---|
E---------------7-9-------------------------7-9--------|

Gutar 2
e----------------------------------------------------------|
B----------------------------------------------------------|
G--9------13-----11-11-13--11---14----------13-11-11--13-7-|
D--x(x4)--x-(4)--x--x--x---x----x-(x4)x(x2)-x--x--x---x--x-|
A--7------11-----9--9--11--9----12----------11-9--9---11-9-|
E----------------------------------------------------------|

Gutar 2
e-----------------------------|
B-----------------------------|
G--8------9------11-13-11s-9--|
D--x(x4)--x(x4)--x--x--x-s-x--|
A--6------7------9--11-9-s-7--|
E-----------------------------|

----------------------------------------------------------------------------
                                     END
----------------------------------------------------------------------------

 Gutar 1
e--2s3--3-2-0--|
B--0s0--0-0-0--|
G--2s3--3-0-1--|
D--------------|
A--------------|
E--------------|

Gutar 2
e--------------|
B--------------|
G--------------|
D-----------2--|
A-----------2--|
E-----------0--|
Suggest correction
Creating personal tab
Creating personal tab
You can edit any tab online and save it as your Personal.

You can edit, replace or remove any tab part or add personal notes – all changes will be seen only by you.

Personal tabs can be accessed anytime from any device, even offline.
Learn more »
comments
print report bad tab
2 comments total.
0 reply
1ndguitar 61 Jan 16, 2010 04:16 PM

Great tab man! Must have taken you a long time!

0 reply
afrodude155 10 Feb 24, 2010 02:23 PM

Afrolicious tab man

guest
Wanna post a correction for this tab? Suggest correction