Oops, an error
Loading. Please wait.

Thank You For The Venom intro tab

version 5
5,939 views 6 this week
3 commentsread comments
1 2 3 4 5
x 12
add to favorites
×
Save as Personal and add changes to this tab that will be seen only by you. Learn more ›
×
You can save this tab as Personal to edit and correct it or add notes. All changes will be seen only by you. Learn more »
launch autoscroll
font size
0
reset
how to read this tab
guitar tuner
edit
Autoscroll
slow
fast
+/-
esc
set tempo
stop
Author
Difficulty
intermediate
THANK YOU FOR THE VENOM - MY CHEMICAL ROMANCE
I hope this is accurate but yeah :)
this is @mcrfive from Instagram btw hi lmao

{INTRO + LEAD GUITAR ONLY!!!}

[Intro] (Lead)
e|---------------------------------------------------------------|
B|---------------------------------------------------------------|
G|---------------------------------------------------------------|
D|---4-------------------------------------------2---4---5-------|
A|---2--2-4-5-2-------5h7-----5-4-2---------2-2------------------|
E|--------------2-3-------2-3--------3-2----0-0----0---0---------|
PM      . . . . . .       . . . . .  . .           .   .

e|------------------------|
B|------------------------|
G|------------------------|
D|-------2---0---4--------|
A|--4-4-------------------|
E|--2-2----0---0----------|
PM         .   .

e|--------------------------------------------------------------------|
B|--------------------------------------------------------------------|
G|--------------------------------------------------------------------|
D|---4--------------4/7---5---4---2-0-------2---0---4-----------------|
A|---2--2-4-5-2------------------------2-2--------------4-4--4-4------|
E|--------------2-3-----0---0---0------0-0----0---0-----2-2--2-2------|
PM      . . . . . .     .   .   .             .   .

{More rhythm comes in..}
e|---------------------------------------------------------------|
B|---------------------------------------------------------------|
G|---------------------------------------------------------------|
D|---4-------------------------------------------2---4---5-------|
A|---2--2-4-5-2-------5h7-----5-4-2---------2-2------------------|
E|--------------2-3-------2-3--------3-2----0-0----0---0---------|
PM      . . . . . .       . . . . .  . .           .   .

e|------------------------|
B|------------------------|
G|------------------------|
D|-------2---0---4--------|
A|--4-4-------------------|
E|--2-2----0---0----------|
PM         .   .

e|---------------------------------------------------------------------------------|
B|---------------------------------------------------------------------------------|
G|---------------------------------------------------------------------------------|
D|---4--------------4/7---5---4---2-0-------2---0---4---------0-----------4*-------|
A|---2--2-4-5-2------------------------2-2--------------4-4---------4--------------|
E|--------------2-3-----0---0---0------0-0----0---0-----2-2------2-----2-----------|
PM      . . . . . .     .   .   .             .   .              .     .

{Just practice on picking up speed like y'know, have patience, start slow :)
I was in a rush so leave any corrections if there's any!!}

************************************

| h   Hammer-on
| PM  Palm mute
| /   Slide up
| *   Natural harmonic

************************************

            
            
Suggest correction
Creating personal tab
Creating personal tab
You can edit any tab online and save it as your Personal.

You can edit, replace or remove any tab part or add personal notes – all changes will be seen only by you.

Personal tabs can be accessed anytime from any device, even offline.
Learn more »
comments
print report bad tab
3 comments total.
0 reply
ScorpioNights 10 Oct 02, 2014 04:19 AM

This is probably one of the most accurate intro tabs for this song! good job :)

0 reply
maria_hey3537 10 Oct 14, 2014 04:01 AM

hey I follow you on instagram, nice work c:

+1 reply
trin.leppert 142 May 19, 2015 06:36 PM

I also recommend learning the notes first and then using the palm mutes after you've learned it really well, maybe this was a given but i've never had a guitar lesson in my life so this was a great discovery for me! great tab by the way, it's spot on!

guest
You may want to rate the tab now too:
select rating
Wanna post a correction for this tab? Suggest correction