Oops, an error
Loading. Please wait.

Thank You For The Venom Bass Tab

version 2
version 2
13,878 views 51 this week
2 commentsread comments
1 2 3 4 5
x 13
add to favorites
launch autoscroll
font size
0
reset
guitar tuner
Autoscroll
slow
fast
+/-
esc
set tempo
stop
Help us to improve Ultimate-Guitar.com Take our survey!
×
[Intro]
G|-------------|
D|-------------|
A|22-----------|
E|----00--22-22|

[Intro 2]
G|--------------------------------------------------------------------|
D|--------------------------------------------------------------------|
A|222222222222222222--------------2222222222222222-55555555-7777777777|
E|------------------00000002222222------------------------------------|

[Verse]
G|---------------------------------|
D|---------------------------------|
A|---------------555555-77-44444444|
E|22222-3-22222-3------------------|

[Break ]
(Love It Or Leave It)
G|-------------------------------|
D|-------------------------------|
A|22-222-222-222-222-222-222-2222|
E|-------------------------------|

[Verse]
G|---------------------------------|
D|---------------------------------|
A|---------------555555-77-44444444|
E|22222-3-22222-3------------------|

[Break]
(Wouldnt Front The scene If You Paid Me)
G|-------------------------------|
D|-------------------------------|
A|22222222222-5-0-22222222222-5-0|
E|-------------------------------|

[Verse]
G|---------------------------------|
D|---------------------------------|
A|---------------555555-77-44444444|
E|22222-3-22222-3------------------|

G|-------------------------------|
D|-------------------------------|
A|22-222-222-222-222-222-222-2222|
E|-------------------------------|

G|---------------------------------|
D|---------------------------------|
A|---------------555555-77-44444444|
E|22222-3-22222-3------------------|

[Pre-Chorus]
G|----------------------------------------------------------------------|
D|----------------------------------------------------------------------|
A|----------------------------------------------------------------------|
E|333333335555-7777-66666666-7777-9999-3333333333333333-5555555555555555|

[Chorus]
G|---------------------------------------------------------------------|
D|---------------------------------------------------------------------|
A|5555555555555555-444444444444444-2222222222222222--------------------|
E|-------------------------------------------------33333333333333333333|

G|---------------------------------------------------------------------|
D|---------------------------------------------------------------------|
A|55555555-7777-9999-44444444-5555-7777-2222222222222222---------------|
E|------------------------------------------------------333333333333333|

[Verse]
G|---------------------------------|
D|---------------------------------|
A|---------------555555-77-44444444|
E|22222-3-22222-3------------------|

G|-------------------------------|
D|-------------------------------|
A|22-222-222-222-222-222-222-2222|
E|-------------------------------|

G|---------------------------------|
D|---------------------------------|
A|---------------555555-77-44444444|
E|22222-3-22222-3------------------|

[Pre-Chorus]
G|----------------------------------------------------------------------|
D|----------------------------------------------------------------------|
A|----------------------------------------------------------------------|
E|333333335555-7777-66666666-7777-9999-3333333333333333-5555555555555555|

[Chorus] (x2)
G|---------------------------------------------------------------------|
D|---------------------------------------------------------------------|
A|5555555555555555-444444444444444-2222222222222222--------------------|
E|-------------------------------------------------33333333333333333333|

G|---------------------------------------------------------------------|
D|---------------------------------------------------------------------|
A|55555555-7777-9999-44444444-5555-7777-2222222222222222---------------|
E|------------------------------------------------------333333333333333|

[Solo]
G|-------------------------------------|
D|-------------------------------------|
A|22222222-----------------------------|(x2)
E|--------33333333-22-1111111-2222-6666|

G|--------------------------------------------------------------------|
D|--------------------------------------------------------------------|
A|---------------------------------------------------0000000-111111111|
E|3333333333333333-0000000000000000-11111111-22222222-----------------|

(Rest For Guitar Break)

(Bass Comes In At)
"Better Card To Lead"
G|----------|
D|----------|
A|----------|
E|-7777-9999|

[Pre-Chorus]
G|----------------------------------------------------------------------|
D|----------------------------------------------------------------------|
A|----------------------------------------------------------------------|
E|333333335555-7777-66666666-7777-9999-3333333333333333-5555555555555555|

[Chorus] (x4)
G|---------------------------------------------------------------------|
D|---------------------------------------------------------------------|
A|5555555555555555-444444444444444-2222222222222222--------------------|
E|-------------------------------------------------33333333333333333333|

G|---------------------------------------------------------------------|
D|---------------------------------------------------------------------|
A|55555555-7777-9999-44444444-5555-7777-2222222222222222---------------|
E|------------------------------------------------------333333333333333|

[Outro]
G|--------|
D|--------|
A|22----22|
E|--------|
Suggest correction
comments
print report bad tab
2 comments total.
0 reply
BassNdRUMSxMCR 10 Nov 03, 2007 05:22 PM

great

0 reply
BassNdRUMSxMCR 10 Nov 03, 2007 05:35 PM

except when u play
A/ --22222222222-5-0---22222222222-5-0/

play this instead
A/ --22222222222-5-0---22222222222-5-7/

it sounds better

guest
You may want to rate the tab now too:
select rating
Wanna post a correction for this tab? Suggest correction