Oops, an error
Loading. Please wait.
We have an official The Ghost Of You tab made by UG professional guitarists. Check out the tab »
×
28,322 views 3 this week
1 commentread comment
1 2 3 4 5
x 4
add to favorites
×
Save as Personal and add changes to this tab that will be seen only by you. Learn more ›
×
You can save this tab as Personal to edit and correct it or add notes. All changes will be seen only by you. Learn more »
launch autoscroll
font size
0
reset
how to read this tab
guitar tuner
edit
Autoscroll
slow
fast
+/-
esc
set tempo
stop
Author
Difficulty
-------------------------------------------------------------------------------
                      Ghost of You - My Chemical Romance
-------------------------------------------------------------------------------
Tabbed by: guitarkenny
Email: kenjy92@yahoo.com

Tuning: Standard

I am pretty sure there are no errors in this tab.  I tabbed both the guitars used in the 
and made Guitar 2 as the harder guitar.  Enjoy!!

Intro:
(Repeat the guitar 1 riff twice in both verses)

Guitar 1 (Clean with reverb)
e|--------------------------------|
B|-3-------3-----2-----------2----|
G|-2-------2-----2-----------2----|x2
D|--------------------------------|
A|---2-2-2---2-2---2-2-2-2-2---2-2|
E|--------------------------------|

e|-------------------------------------------------|
B|-3-------3-----2-----------2-----3-------3-----2-|
G|-2-------2-----2-----------2-----2-------2-----2-|
D|-------------------------------------------------|
A|-------------------------------------------------|
E|---0-0-0---0-0---0-0-0-0-0---0-0---2-2-2---2-2---|


Guitar 2 (Clean)

e|---------------| e|-------------------------7------|
B|-------7-------| B|-------------------7-------7-10-|
G|---7-------7-x2| G|---7---7---6---7-------7--------|
D|-9---9---9-----| D|-9---9---9---9---9---9----------|
A|---------------| A|--------------------------------|
E|---------------| E|--------------------------------|


Verse 1:

Guitar 2 (Clean)
e|---------------------------------------------------------------|
B|-------------------------------------7-----8-----10------------|
G|-9h11-7h9-6h7-6/4~-9h11-7h9-6h7-7\9~---7-6---7-6----7-6-7-7\9~-|
D|---------------------------------------------------------------|
A|---------------------------------------------------------------|
E|---------------------------------------------------------------|

e|--------------------------------------------------------------|
B|-7-----7------------------------------------------------------|
G|---7-6---7-6-9-7-6~---11---12---11---9----11---12---11---9-11-|
D|--------------------9----9----9----9----9----9----9----9------|
A|--------------------------------------------------------------|
E|--------------------------------------------------------------|

e|-----------------------------------------------|
B|-----------------------------------------------|
G|-11\14~-12-11-----11\14~-12-11-12-11-----------|
D|--------------12~--------------------12-12\14~-|
A|-----------------------------------------------|
E|-----------------------------------------------|


Chorus 1:

Guitar 1 (Distorted)
e|------------------------------------------------------------------|
B|------------------------------------------------------------------|
G|-------------4-4-4-4-4--4-4-4-4-4--x-4--2-2-2-2-2--2-2-2-2-2--x-2-|
D|-5------2----4-4-4-4-4--4-4-4-4-4--x-4--2-2-2-2-2--2-2-2-2-2--x-2-|
A|-5-x16--2x16-2-2-2-2-2--2-2-2-2-2--x-2--0-0-0-0-0--0-0-0-0-0--x-0-|
E|-3------0---------------------------------------------------------|

e|----------------------|
B|----------------------|
G|----------------------|
D|-5-----4\5/4/2--2-----|
A|-5-x12-4\5/4/2--2-x16-|
E|-3-----2\3/2/0--0-----|


Guitar 2 (Distorted)
e|-------------------------------------------------Triplet-----------|
B|-------------------------------------------------------------------|
G|-6-6-6-6-6-6-6-6-6\14-14-14-14\16-16-16-6-6-6-6-[12-14-12]-11-11/9-|
D|-x-x-x-x-x-x-x-x-x\-x--x--x--x--x--x--x-x-x-x-x-[-x--x--x]--x--x/x-|
A|-4-4-4-4-4-4-4-4-4\12-12-12-12\14-14-14-4-4-4-4-[10-12-10]--9--9/7-|
E|-------------------------------------------------------------------|

e|----------------------------------------------------------------------|
B|----------------------------------------------------------------------|
G|-11\12-11/9-11--11\12-11/9-11--x-11--11\12-11/9-11--11\12-11/9-9--x-9-|
D|--x\-x--x/x--x---x\-x--x/x--x--x--x---x\-x--x/x--x---x\-x--x/x-x--x-x-|
A|--9\10--9/7--9---9\10--9/7--9--x--9---9\10--9/7--9---9\10--9/7-7--x-7-|
E|----------------------------------------------------------------------|

e|----------------------|
B|----------------------|
G|-6----7----9----11----|
D|-x-x8-x-x8-x-x8--x-x8-|
A|-4----5----7-----9----|
E|----------------------|

Verse 2:

Guitar 2 (Clean)
e|-------------------------------------------------------------------|
B|-------------------------------------------------------------------|
G|-11--11-11-11-11-11-11-11-11--------------11--11-11-11-11-11-11-11-|
D|------------------------------9-9--9-9--9--------------------------|
A|-------------------------------------------------------------------|
E|-------------------------------------------------------------------|

e|----------------------------------|
B|----------------------------------|
G|-9---7---6-------9---7-6-7-6------|
D|-------------9---------------9-7~-|
A|----------------------------------|
E|----------------------------------|

e|---------------------------------------------------------------|
B|-------------------------------------7-----8-----10------------|
G|-9h11-7h9-6h7-6/4~-9h11-7h9-6h7-7\9~---7-6---7-6----7-6-7-7\9~-|
D|---------------------------------------------------------------|
A|---------------------------------------------------------------|
E|---------------------------------------------------------------|

e|-------------------|
B|-------------------|
G|-7-5--4-5--7-5--4~-|
D|-------------------|
A|-------------------|
E|-------------------|


Chorus 2:

Guitar 1 (Distorted)
e|------------------------------------------------------------------|
B|------------------------------------------------------------------|
G|-------------4-4-4-4-4--4-4-4-4-4--x-4--2-2-2-2-2--2-2-2-2-2--x-2-|
D|-5------2----4-4-4-4-4--4-4-4-4-4--x-4--2-2-2-2-2--2-2-2-2-2--x-2-|
A|-5-x16--2x16-2-2-2-2-2--2-2-2-2-2--x-2--0-0-0-0-0--0-0-0-0-0--x-0-|
E|-3------0---------------------------------------------------------|

e|----------------------|
B|----------------------|
G|----------------------|
D|-5-----4\5/4/2--2-----|
A|-5-x12-4\5/4/2--2-x16-|
E|-3-----2\3/2/0--0-----|

e|------------------------------------------------------|
B|------------------------------------------------------|
G|-4-4-4-4-4--4-4-4-4-4--x-4--2-2-2-2-2--2-2-2-2-2--x-2-|
D|-4-4-4-4-4--4-4-4-4-4--x-4--2-2-2-2-2--2-2-2-2-2--x-2-|
A|-2-2-2-2-2--2-2-2-2-2--x-2--0-0-0-0-0--0-0-0-0-0--x-0-|
E|------------------------------------------------------|

e|----------------------|
B|----------------------|
G|----------------------|
D|-5-----4\5/4/2--2-----|
A|-5-x12-4\5/4/2--2-x16-|
E|-3-----2\3/2/0--0-----|


Guitar 2 (Distorted)
e|-------------------------------------------------Triplet-----------|
B|-------------------------------------------------------------------|
G|-6-6-6-6-6-6-6-6-6\14-14-14-14\16-16-16-6-6-6-6-[12-14-12]-11-11/9-|
D|-x-x-x-x-x-x-x-x-x\-x--x--x--x--x--x--x-x-x-x-x-[-x--x--x]--x--x/x-|
A|-4-4-4-4-4-4-4-4-4\12-12-12-12\14-14-14-4-4-4-4-[10-12-10]--9--9/7-|
E|-------------------------------------------------------------------|

e|----------------------------------------------------------------------|
B|----------------------------------------------------------------------|
G|-11\12-11/9-11--11\12-11/9-11--x-11--11\12-11/9-11--11\12-11/9-9--x-9-|
D|--x\-x--x/x--x---x\-x--x/x--x--x--x---x\-x--x/x--x---x\-x--x/x-x--x-x-|
A|--9\10--9/7--9---9\10--9/7--9--x--9---9\10--9/7--9---9\10--9/7-7--x-7-|
E|----------------------------------------------------------------------|

e|----------------------|
B|----------------------|
G|-6----7----9----11----|
D|-x-x8-x-x8-x-x8--x-x8-|
A|-4----5----7-----9----|
E|----------------------|

e|----------------------------------------------------------------------|
B|----------------------------------------------------------------------|
G|-11\12-11/9-11--11\12-11/9-11--x-11--11\12-11/9-11--11\12-11/9-9--x-9-|
D|--x\-x--x/x--x---x\-x--x/x--x--x--x---x\-x--x/x--x---x\-x--x/x-x--x-x-|
A|--9\10--9/7--9---9\10--9/7--9--x--9---9\10--9/7--9---9\10--9/7-7--x-7-|
E|----------------------------------------------------------------------|

e|----------------------|
B|----------------------|
G|-6----7----9----11----|
D|-x-x8-x-x8-x-x8--x-x8-|
A|-4----5----7-----9----|
E|----------------------|


Bridge:

Guitar 1 (Clean with Chorus Effect)
e|---------------------------------|
B|---------------------------------|
G|-----0-------0-------0-------0---|
D|-4-------4-------4-------4-------|
A|---2---2-----------4---4---------|
E|-----------3---3-----------2---2-|


Guitar 1 with Guitar 2 present
e|---------------------------------|
B|---------------------------------|
G|-----0-------0-------0-------0---|
D|-4-------4-------4-------4-------|
A|---2---2-----------4---4---------|
E|-----------3---3-----------2---2-|

Guitar 2 (Clean)
e|-------2---------7---------3-------|
B|---3-----3---8-----8---5-------5---|
G|-4---4-----9---9-----6---6---6---7-|
D|-----------------------------------|
A|-----------------------------------|
E|-----------------------------------|

"If I fall...if I fall...down..."


Guitar 1 (Distorted)
e|---------------------|
B|---------------------|
G|-4---------6---------|x2
D|-4-x8-5-x8-6-x8-4-x8-|
A|-2----5----4----4----|
E|------3---------2----|

Guitar 2 (Distorted)
e|------------------------------------------------------------------------|
B|------------------------------------------------------------------------|
G|------------11----------------12----------------11----9-----------------|
D|-9h12-11h12----12--9h12-11h12----12--9h12-11h12----12---12-11--12-11----|
A|---------------------------------------------------------------------12-|
E|------------------------------------------------------------------------|

e|------------------------------------------------------------|
B|------------------------------------------------------------|
G|------------11----------------12----------------11----------|
D|-9h12-11h12----12--9h12-11h12----12--9h12-11h12----12-12/14-|
A|------------------------------------------------------------|
E|------------------------------------------------------------|


Guitar 1 (Octave Chords with Guitar 2)
e|---------------------------------|
B|---------------------------------|
G|-4-4-6-7-9-9-7-7-6-6-6-6-4-4-2-2-|
D|-x-x-x-x-x-x-x-x-x-x-x-x-x-x-x-x-|
A|-2-2-4-5-7-7-5-5-4-4-4-4-2-2-0-0-|
E|---------------------------------|

e|-----------------------------------------|
B|-----------------------------------------|
G|-4-4-6-7-9-9-7-7-6-6-6-6-----------------|
D|-x-x-x-x-x-x-x-x-x-x-x-x-4-4-4-4-2-2-2-2-|
A|-2-2-4-5-7-7-5-5-4-4-4-4-2-2-2-2-0-0-0-0-|
E|-----------------------------------------|
>|=========================. . . . . . . . |

Guitar 2 (Octave Chords with Guitar 1)
e|--------------------------------------|
B|--------------------------------------|
G|-7-7-9-11-12-12-11-11-9-9-9-9-7-7-6-6-|
D|-x-x-x--x--x--x--x--x-x-x-x-x-x-x-x-x-|
A|-5-5-7--9-10-10--9--9-7-7-7-7-5-5-4-4-|
E|--------------------------------------|

e|----------------------------------------------|
B|----------------------------------------------|
G|-7-7-9-11-12-12-11-11-9-9-9-9-----------------|
D|-x-x-x--x--x--x--x--x-x-x-x-x-7-7-7-7-6-6-6-6-|
A|-5-5-7--9-10-10--9--9-7-7-7-7-5-5-5-5-4-4-4-4-|
E|----------------------------------------------|
>|==============================. . . . . . . . |


Outro:

Guitar 1 (Distorted)
e|------------------------------------------------------------------|
B|------------------------------------------------------------------|
G|-------------4-4-4-4-4--4-4-4-4-4--x-4--2-2-2-2-2--2-2-2-2-2--x-2-|
D|-5------2----4-4-4-4-4--4-4-4-4-4--x-4--2-2-2-2-2--2-2-2-2-2--x-2-|
A|-5-x16--2x16-2-2-2-2-2--2-2-2-2-2--x-2--0-0-0-0-0--0-0-0-0-0--x-0-|
E|-3------0---------------------------------------------------------|

e|----------------------|
B|----------------------|
G|----------------------|
D|-5-----4\5/4/2--2-----|
A|-5-x12-4\5/4/2--2-x16-|
E|-3-----2\3/2/0--0-----|

e|------------------------------------------------------|
B|------------------------------------------------------|
G|-4-4-4-4-4--4-4-4-4-4--x-4--2-2-2-2-2--2-2-2-2-2--x-2-|
D|-4-4-4-4-4--4-4-4-4-4--x-4--2-2-2-2-2--2-2-2-2-2--x-2-|
A|-2-2-2-2-2--2-2-2-2-2--x-2--0-0-0-0-0--0-0-0-0-0--x-0-|
E|------------------------------------------------------|

e|----------------------|
B|----------------------|
G|----------------------|
D|-5-----4\5/4/2--2-----|
A|-5-x12-4\5/4/2--2-x16-|
E|-3-----2\3/2/0--0-----|


Guitar 2 (Distorted)
e|-------------------------------------------------Triplet-----------|
B|-------------------------------------------------------------------|
G|-6-6-6-6-6-6-6-6-6\14-14-14-14\16-16-16-6-6-6-6-[12-14-12]-11-11/9-|
D|-x-x-x-x-x-x-x-x-x\-x--x--x--x--x--x--x-x-x-x-x-[-x--x--x]--x--x/x-|
A|-4-4-4-4-4-4-4-4-4\12-12-12-12\14-14-14-4-4-4-4-[10-12-10]--9--9/7-|
E|-------------------------------------------------------------------|

e|----------------------------------------------------------------------|
B|----------------------------------------------------------------------|
G|-11\12-11/9-11--11\12-11/9-11--x-11--11\12-11/9-11--11\12-11/9-9--x-9-|
D|--x\-x--x/x--x---x\-x--x/x--x--x--x---x\-x--x/x--x---x\-x--x/x-x--x-x-|
A|--9\10--9/7--9---9\10--9/7--9--x--9---9\10--9/7--9---9\10--9/7-7--x-7-|
E|----------------------------------------------------------------------|

e|----------------------|
B|----------------------|
G|-6----7----9----11----|
D|-x-x8-x-x8-x-x8--x-x8-|
A|-4----5----7-----9----|
E|----------------------|

e|----------------------------------------------------------------------|
B|----------------------------------------------------------------------|
G|-11\12-11/9-11--11\12-11/9-11--x-11--11\12-11/9-11--11\12-11/9-9--x-9-|
D|--x\-x--x/x--x---x\-x--x/x--x--x--x---x\-x--x/x--x---x\-x--x/x-x--x-x-|
A|--9\10--9/7--9---9\10--9/7--9--x--9---9\10--9/7--9---9\10--9/7-7--x-7-|
E|----------------------------------------------------------------------|

e|----------------------|
B|----------------------|
G|-6----7----9----11----|
D|-x-x8-x-x8-x-x8--x-x8-|
A|-4----5----7-----9----|
E|----------------------|

Yes, I finished!!!!!  Haha it took a very long time.  Please have fun!!


| /  slide up
| \  slide down
| h  hammer-on
| p  pull-off
| ~  vibrato
| +  harmonic
| x  Mute note
===============================================================================

            
            
Suggest correction
Creating personal tab
Creating personal tab
You can edit any tab online and save it as your Personal.

You can edit, replace or remove any tab part or add personal notes – all changes will be seen only by you.

Personal tabs can be accessed anytime from any device, even offline.
Learn more »
comments
print report bad tab
1 comment total.
0 reply
Valkyrie Cain 10 Feb 26, 2013 08:05 PM

sounds great!!! thanxs :D

guest
You may want to rate the tab now too:
select rating
Wanna post a correction for this tab? Suggest correction