Oops, an error
Loading. Please wait.

The Kids From Yesterday Tab

version 1
version 1

Whole song

Interactive

20,153 views 33 this week
no commentswrite comment
1 2 3 4 5
accurate
x 6
add to favorites
launch autoscroll
font size
0
reset
how to read this tab
guitar tuner
Tab Pro tools
  • play this tab
  • loop segment
  • change instrument
  • show fretboard
  • metronome
×
Best way to learn
"The Kids From Yesterday"
Autoscroll
slow
fast
+/-
esc
set tempo
stop
Contributor
Standard Tuning: EADGBe

Intro

Ray Toro

|--------------------------------------------|
|--------------------------------------------|
|-14-(x10)-16-(x4)---------------------------|
|------------------16-(x10)-14-(x4)----------|
|--------------------------------------------|
|--------------------------------------------|

Frank Iero                                  end with...

|--------------------------------------|    |-----|
|--------------------------------------|    |-----|
|-777777777777/9999/777777777777/6666--| x2 |--7~-|
|-xxxxxxxxxxxx/xxxx/xxxxxxxxxxxx/xxxx--|    |--x--|
|-555555555555/7777/555555555555/4444--|    |--5~-|
|--------------------------------------|    |-----|


Instrumental during the verse


1st part           2nd part
|--------------|  |---------------------------------|
|-----10~------|  |-----10~-----12~////7~---(5)-----|
|-7-9----------|  |-7-9-----------------------------|
|--------------|  |---------------------------------|
|--------------|  |---------------------------------|
|--------------|  |---------------------------------|


Pre-chorus

part 1
|------------------------------------|
|------------------------------------|
|-------------------------7777777----| x2   *=PM
|-5555555-7777777-9999999-7777777----|
|-5555555-7777777-9999999-5555555----|
|-3333333-5555555-7777777------------|
  ******* ******* ******* *******
part 2
|----------------------------------------------------|
|----------------------------------------------------|
|-----------------7777777----------------------------|
|-5555555-7777777-7777777-5555555-5555555-7777777----|
|-5555555-7777777-5555555-5555555-5555555-7777777----|
|-3333333-5555555---------3333333-3333333-5555555----|
  ******* ******* ******* ******* ******* *******

Chorus

Ray Toro

|-----------------------------------|
|-----------------------------------|
|-14------/16------/11------/9------|
|-x-(x10)-/x--(x4)-/x--(x10)/x-(x4)-|
|-12------/14------/9-------/7------|
|-----------------------------------|

Frank Iero                                  end with...

|--------------------------------------|    |-----|
|--------------------------------------|    |-----|
|-777777777777/9999/777777777777/6666--| x2 |--7~-|
|-xxxxxxxxxxxx/xxxx/xxxxxxxxxxxx/xxxx--|    |--x--|
|-555555555555/7777/555555555555/4444--|    |--5~-|
|--------------------------------------|    |-----|


Instrumental during the verse

1st part           2nd part
|--------------|  |---------------------------------|
|-----10~------|  |-----10~-----12~////7~---(5)-----|
|-7-9----------|  |-7-9-----------------------------|
|--------------|  |---------------------------------|
|--------------|  |---------------------------------|
|--------------|  |---------------------------------|


Pre-chorus

part 1
|------------------------------------|
|------------------------------------|
|-------------------------7777777----| x2   *=PM
|-5555555-7777777-9999999-7777777----|
|-5555555-7777777-9999999-5555555----|
|-3333333-5555555-7777777------------|
  ******* ******* ******* *******
part 2
|----------------------------------------------------|
|----------------------------------------------------|
|-----------------7777777----------------------------|
|-5555555-7777777-7777777-5555555-5555555-7777777----|
|-5555555-7777777-5555555-5555555-5555555-7777777----|
|-3333333-5555555---------3333333-3333333-5555555----|
  ******* ******* ******* ******* ******* *******


bridge

|----------------------------------------------------------------------------------------|
|----------------------------------------------------------------------------------------|
|-7777777/9999/1111111111-7777777/9999/666666/444/777777/9999/111111111-7777777777/666---| x2
|-xxxxxxx/xxxx/x-x-x-x-x--xxxxxxx/xxxx/xxxxxx/xxx/xxxxxx/xxxx/x-x-x-x-x-xxxxxxxxxx/xxx---| 
|-5555555/7777/9-9-9-9-9--5555555/7777/444444/222/555555/7777/9-9-9-9-9-5555555555/444---|
|----------------------------------------------------------------------------------------|

pre-chorus


part 1
|------------------------------------|
|------------------------------------|
|-------------------------7777777----| x2
|-5555555-7777777-9999999-7777777----|
|-5555555-7777777-9999999-5555555----|
|-3333333-5555555-7777777------------|

part 2
|----------------------------------------------------|
|----------------------------------------------------|
|-----------------7777777----------------------------|
|-5555555-7777777-7777777-5555555-5555555-7777777----|
|-5555555-7777777-5555555-5555555-5555555-7777777----|
|-3333333-5555555---------3333333-3333333-5555555----|

Chorus

Ray Toro

|----------------------------------|
|----------------------------------|
|-14-----/16-----/11------/9-------|
|-x-(x10)/x--(x4)/x--(x10)/x-(x4)--|
|-12-----/14-----/9-------/7-------|
|----------------------------------|

Frank Iero                                  end with...

|--------------------------------------|    |-----|
|--------------------------------------|    |-----|
|-777777777777/9999/777777777777/6666--| x2 |--7~-|
|-xxxxxxxxxxxx/xxxx/xxxxxxxxxxxx/xxxx--|    |--x--|
|-555555555555/7777/555555555555/4444--|    |--5~-|
|--------------------------------------|    |-----|

3rd guitar

|-------------------------------------------------------|
|-15151515151515151515-14-121212-14-151515151515151515--|  til the end...
|-------------------------------------------------------|
|-------------------------------------------------------|
|-------------------------------------------------------|
|-------------------------------------------------------|
comments
print report bad tab
I want to post or [tab]
guest
You may want to rate the tab now too:
select rating
Please do not post tabs as comments. Select "correction" instead!