Oops, an error
Loading. Please wait.

The Light Behind Your Eyes bass

version 1
version 1

Whole song

Interactive

4,080 views 15 this week
2 commentsread comments
1 2 3 4 5
x 10
add to favorites
×
Save as Personal and add changes to this tab that will be seen only by you. Learn more ›
×
You can save this tab as Personal to edit and correct it or add notes. All changes will be seen only by you. Learn more »
launch autoscroll
font size
0
reset
guitar tuner
edit
Autoscroll
slow
fast
+/-
esc
set tempo
stop
No bass until first chorus (1:20)

(CHORUS)
(if I could be with you tonight...)
G|-------------------------|
D|-------------------------|
A|-----------3-33-5-55-----| X3
E|-0-00-2-33---------------|

(as we fade in the dark..)
G|--------------------------|
D|--------------------------|
A|-----------3-33-5-55------|
E|-0-00-2-33----------0~-0~-|

(repeat through "be strong and hold my hand..."to "and im sorry how it ends this way...")

("if you promise not to cry..")
G|-----------------|-----------------|-----------------|-----------------|
D|-----------------|-----------------|-----------------|-----------------|
A|-3-3-3-3-3-3-3-3-|/5-5-5-5-5-5-5-5-|-3-3-3-3-3-3-3-3-|/5-5-5-5-5-5-5-5-|
E|-----------------|-----------------|-----------------|-----------------|


(if I could be with you tonight)
G|--------------------------------------------|
D|-----------------------------------------5-4|
A|-----------3--5/3\5-------------3-33--5-3---| X2
E|-0-00-2-33------------0-00-2-33-------------|

(.."the light behind your eyes")
G|-----------------|-----------------|-----------------|-----------------|
D|-----------------|-----------------|-----------------|-----------------|
A|-3-3-3-3-3-3-3-3-|/5-5-5-5-5-5-5-5-|-3-3-3-3-3-3-3-3-|/5-5-5-5-5-5-5-5-|
E|-----------------|-----------------|-----------------|-----------------|

("Sometimes we must grow stronger"...."you must be stronger and if I..")
G|-------------------------------------------------------------------------|
D|-------------------------------------------------------------------------|
A|-----------55555555--------33333333--------------------------------------|
E|--00000000---------55555555-----------00000000-22222222-33333333-55555555|

("...could be with you tonight)
G|--------------------------------------------|
D|-----------------------------------------5-4|
A|-----------3--5/3\5-------------3-33--5-3---| X2
E|-0-00-2-33------------0-00-2-33-------------|

(.."the light behind your eyes")
G|-----------------|-----------------|-----------------|-----------------|
D|-----------------|-----------------|-----------------|-----------------|
A|-3-3-3-3-3-3-3-3-|/5-5-5-5-5-5-5-5-|-3-3-3-3-3-3-3-3-|/5-5-5-5-5-5-5-5-| X3
E|-----------------|-----------------|-----------------|-----------------|

THAAAANKS :) if there's any problems then please e-mail me or comment :) this is my 
first tab sooo... ( tori.coulson@gmail.com )

            
            
Suggest correction
Creating personal tab
Creating personal tab
You can edit any tab online and save it as your Personal.

You can edit, replace or remove any tab part or add personal notes – all changes will be seen only by you.

Personal tabs can be accessed anytime from any device, even offline.
Learn more »
comments
print report bad tab
2 comments total.
+1 reply
shelby.moore.35 10 Nov 27, 2013 02:28 PM

I think instead of 22222222/55555555 it should be 33333333/55555555 :)

0 reply
Offbe4t 10 May 02, 2015 06:37 AM

greate tabs! @shelby.moore.35 I think you are right XD

guest
You may want to rate the tab now too:
select rating
Wanna post a correction for this tab? Suggest correction