Oops, an error
Loading. Please wait.

The Only Hope For Me Is You bass

version 4
version 4

Whole song

Interactive

91 views 1 this week
no commentswrite comment
1 2 3 4 5
2 more votes to show rating
add to favorites
×
Save as Personal and add changes to this tab that will be seen only by you. Learn more ›
×
You can save this tab as Personal to edit and correct it or add notes. All changes will be seen only by you. Learn more »
launch autoscroll
font size
0
reset
guitar tuner
edit
Autoscroll
slow
fast
+/-
esc
set tempo
stop
Difficulty
-------------------------------------------------------------------------------
             The Only Hope For Me Is You - My Chemical Romance
-------------------------------------------------------------------------------
Tabbed by: J. Shan.
E-mail: N/A 

Tuning: Standard
(The intro to the pre-chorus is silent.)

Chorus:

G|---------------------------------------------------------------------------|
D|---------------------------------------------------------------------------|
A|------------------5-5-5-5-5-5-5-5-------------------2-2-2-2-2-2-2-2--------|
E|-3-3-3-3-3-3-3-3-------------------0-0-0-0-0-0-0-0-------------------------|

G|---------------------------------------------------------------------------|
D|---------------------------------------------------------------------------|
A|-3-3-3-3-3-3-3-3-------------------5-5-5-5-5-5-5-5-5-5-5-5-5-5-5-5---------|
E|------------------3-3-3-3-3-3-3-3------------------------------------------|

G|---------------------------------------------------------------------------|
D|---------------------------------------------------------------------------|
A|------------------5-5-5-5-5-5-5-5-------------------2-2-2-2-2-2-2-2--------|
E|-3-3-3-3-3-3-3-3-------------------0-0-0-0-0-0-0-0-------------------------|

G|---------------------------------------------------------------------------|
D|---------------------------------------------------------------------------|
A|-3-3-3-3-3-3-3-3-------------------5-5-5-5-5-5-5-5-5-5-5-5-5-5-5-5---------|
E|------------------3-3-3-3-3-3-3-3------------------------------------------|

Verse 2

G|---------------------------------------------------------------------------|
D|---------------------------------------------------------------------------|
A|----------------------------2-3-5----6-6-6-6-6-6-6-6----3-3-3-3-3-3-3-2----|
E|-3-3-3-3-3-3-3-3--3-3-3-3-3------------------------------------------------|

G|---------------------------------------------------------------------------|
D|---------------------------------------------------------------------------|
A|----------------------------2-3-5----6-6-6-6-6-6-8-8----3-3-3-3-3-3-5-5----|
E|-3-3-3-3-3-3-3-3--3-3-3-3-3------------------------------------------------|

Pre-Chorus

G|---------------------------------------------------------------------------|
D|---------------------------------------------------------------------------|
A|---------------------------------------------------------------------------|
E|-3----3----3-3-3-2----2----2----2-2-2-0----0-----0----0-0-0-0--------------|

G|---------------------------------------------------------------------------|
D|---------------------------------------------------------------------------|
A|-5----5----5-5-5-5-------------3--------6----------------------------------|
E|---------------------------------------------------------------------------|

Chorus

G|---------------------------------------------------------------------------|
D|---------------------------------------------------------------------------|
A|------------------5-5-5-5-5-5-5-5-------------------2-2-2-2-2-2-2-2--------|
E|-3-3-3-3-3-3-3-3-------------------0-0-0-0-0-0-0-0-------------------------|

G|---------------------------------------------------------------------------|
D|---------------------------------------------------------------------------|
A|-3-3-3-3-3-3-3-3-------------------5-5-5-5-5-5-5-5-5-5-5-5-5-5-5-5---------|
E|------------------3-3-3-3-3-3-3-3------------------------------------------|

G|---------------------------------------------------------------------------|
D|---------------------------------------------------------------------------|
A|------------------5-5-5-5-5-5-5-5-------------------2-2-2-2-2-2-2-2--------|
E|-3-3-3-3-3-3-3-3-------------------0-0-0-0-0-0-0-0-------------------------|

G|---------------------------------------------------------------------------|
D|---------------------------------------------------------------------------|
A|-3-3-3-3-3-3-3-3-------------------5-5-5-5-5-5-5-5-5-5-5-5-5-5-5-5---------|
E|------------------3-3-3-3-3-3-3-3------------------------------------------|

Bridge

G|---------------------------------------------------------------------------|
D|------------------------4----------5---------------------------------------|
A|-----------7---7-----------------------------------------------------------|
E|-0-0-0-0-0---0------2-2---2----3-3---3-------------------------------------|

G|---------------------------------------------------------------------------|
D|---------------------------------------------------------------------------|
A|-----------8---8--------------5---5----------------------------------------|
E|-6-6-6-6-6---6------3-3-3-3-3---3------------------------------------------|

G|---------------------------------------------------------------------------|
D|------------------------4----------5---------------------------------------|
A|-----------7---7-----------------------------------------------------------|
E|-0-0-0-0-0---0------2-2---2----3-3---3-------------------------------------|

G|---------------------------------------------------------------------------|
D|---------------------------------------------------------------------------|
A|-----------8---8--------------5---5----------------------------------------|
E|-6-6-6-6-6---6------3-3-3-3-3---3------------------------------------------|

G|---------------------------------------------------------------------------|
D|------------------------4----------5---------------------------------------|
A|-----------7---7-----------------------------------------------------------|
E|-0-0-0-0-0---0------2-2---2----3-3---3-------------------------------------|

G|---------------------------------------------------------------------------|
D|---------------------------------------------------------------------------|
A|-----------8---8--------------5---5----------------------------------------|
E|-6-6-6-6-6---6------3-3-3-3-3---3------------------------------------------|

G|---------------------------------------------------------------------------|
D|------------------------4----------5---------------------------------------|
A|-----------7---7-----------------------------------------------------------|
E|-0-0-0-0-0---0------2-2---2----3-3---3-------------------------------------|

G|---------------------------------------------------------------------------|
D|---------------------------------------------------------------------------|
A|-----------8---8--------------5---5----------------------------------------|
E|-6-6-6-6-6---6------3-3-3-3-3---3------------------------------------------|

Chorus

G|---------------------------------------------------------------------------|
D|---------------------------------------------------------------------------|
A|---------------------------------------------------------------------------|
E|----------------------------------------r-r-r-r-r-2-2-2--------------------|

G|---------------------------------------------------------------------------|
D|---------------------------------------------------------------------------|
A|-3-3-3-3-3-3-3-3-------------------5-5-5-5-5-5-5-5-5-5-5-5-5-5-5-5---------|
E|------------------3-3-3-3-3-3-3-3------------------------------------------|

G|---------------------------------------------------------------------------|
D|---------------------------------------------------------------------------|
A|----------------------------------------------------5-5-5-5-5-5-5-5--------|
E|-3-3-3-3-3-3-3-3--2-2-2-2-2-2-2-2--0-0-0-0-0-0-0-0-------------------------|

G|---------------------------------------------------------------------------|
D|---------------------------------------------------------------------------|
A|-3-3-3-3-3-3-3-3-------------------5-5-5-5-5-5-5-5-------------------------|
E|------------------3-3-3-3-3-3-3-3------------------------------------------|

Guitar Solo

G|---------------------------------------------------------------------------|
D|---------------------------------------------------------------------------|
A|--------------------------2-3-5-6--6-6-6-6-6-6-6-6--3-3-3-3-3-3-5-5--------|
E|-3-3-3-3-3-3-3-3--3-3-3-3--------------------------------------------------|

G|---------------------------------------------------------------------------|
D|---------------------------------------------------------------------------|
A|--------------------------2-3-5-6--6-6-6-6-6-6-6-6--3-3-3-3-3-3-5-5--------|
E|-3-3-3-3-3-3-3-3--3-3-3-3--------------------------------------------------|

G|---------------------------------------------------------------------------|
D|---------------------------------------------------------------------------|
A|--------------------------2-3-5-6--6-6-6-6-6-6-6-6--3-3-3-3-3-3-5-5--------|
E|-3-3-3-3-3-3-3-3--3-3-3-3--------------------------------------------------|

G|---------------------------------------------------------------------------|
D|---------------------------------------------------------------------------|
A|--------------------------2-3-5-6--6-6-6-6-6-6-6-6--3-3-3-3-3-3-5-5--------|
E|-3-3-3-3-3-3-3-3--3-3-3-3--------------------------------------------------|

Outro

G|---------------------------------------------------------------------------|
D|---------------------------------------------------------------------------|
A|---------------------------------------------------------------------------|
E|-3~------------------------------------------------------------------------| 

G|---------------------------------------------------------------------------|
D|---------------------------------------------------------------------------|
A|-18~-------------------15~------15-17--------------------------------------|
E|---------------------------------------------------------------------------|

G|---------------------------------------------------------------------------|
D|---------------------------------------------------------------------------|
A|---------------------------------------------------------------------------|
E|-15~-----------------------------------------------------------------------|

G|---------------------------------------------------------------------------|
D|---------------------------------------------------------------------------|
A|-15--------------17--------------------------------------------------------|
E|-------------------------15------------------------------------------------|

And That's it, I've never made tabs before, but hopefully you can follow them?

| /  slide up
| \  slide down
| h  hammer-on
| p  pull-off
| ~  vibrato
| +  harmonic
| x  Mute note
| r  Rest(?)
=============================================================================== 
Suggest correction
Creating personal tab
Creating personal tab
You can edit any tab online and save it as your Personal.

You can edit, replace or remove any tab part or add personal notes – all changes will be seen only by you.

Personal tabs can be accessed anytime from any device, even offline.
Learn more »
Give kudos to tab author, rate the tab!
1 2 3 4 5
comments
print report bad tab
guest
Wanna post a correction for this tab? Suggest correction