Oops, an error
Loading. Please wait.

The World Is Ugly bass

version 1
version 1

Whole song

Interactive

2,771 views 3 this week
2 commentsread comments
1 2 3 4 5
x 3
add to favorites
×
Save as Personal and add changes to this tab that will be seen only by you. Learn more ›
×
You can save this tab as Personal to edit and correct it or add notes. All changes will be seen only by you. Learn more »
launch autoscroll
font size
0
reset
guitar tuner
edit
Autoscroll
slow
fast
+/-
esc
set tempo
stop
Author
Difficulty
This is the first time I upload a tab and the first time I find bass notes to a song.. I 
think it's correct but I don't know.. constructive comments are welcome!

Veronica :)


Intro [0:21]
G|-----------------------------------------------------------------------------------------------------|
D|-----------------------------------------------------------------------------------------------------|
A|-----55555555---4444-----22222222---0000-------------------------------------------------------------|
E|--------------------------------------------------------------------3333333333---55555555---7777777--|

G|-------------------------------------|
D|-------------------------------------|
A|-------------------------------------|
E|-------5555-----3333333------555555--|

Verse [0:46]
G|---------------------------------------------------------------------------------------------------|
D|---------------------------------------------------------------------------------------------------|
A|------2222222222---0000----------------------------------------------------------------------------|
E|--------------------------------333333--22222---0000000---5555555--777777777777--55555--333333333--|

G|-----------------------------------------------------------------|
D|-----------------------------------------------------------------|
A|-----------------------------------------------------------------|
E|----55555555555--7777777777777--5555555---3333333333--555555555--|

Chorus [1:21]
G|----------------------------------------------------------|
D|----------------------------------------------------------|
A|-----555555555555---4444-----222222222222---0000----------|
E|----------------------------------------------------------|

-----------------------------------------------------------|
-----------------------------------------------------------|
-----------------------------5------5----5---5----5---5----|
----------3333333333---55555555-7---777-----7---7---7---7--|


Verse 2 [1:41]
G|---------------------------------------------------------------------------------------------------|
D|---------------------------------------------------------------------------------------------------|
A|------2222222222---0000----------------------------------------------------------------------------|
E|--------------------------------333333--22222---0000000---5555555--777777777777--55555--333333333--|


G|---------------------------------------------------------------------------------------|
D|---------------------------------------------------------------------------------------|
A|---------------------------------------------------------------------------------------|
E|----55555555555--7777777777777--5555555---3333333333--555555555------------------------|

G|-----------------------------------------------------------------|
D|-----------------------------------------------------------------|
A|-----------------------------------------------------------------|
E|----55555555555--7777777777777--5555555---3333333333--555555555--|

Chorus 2 [2:16]
G|-----------------------------------------------------------------------------------------------------|
D|-----------------------------------------------------------------------------------------------------|
A|-----555555555555---4444-----222222222222---0000-----------------------------------------------------|
E|--------------------------------------------------------------------3333333333---55555555---777777777|

G|--------------------------------------------------------------------|
D|--------------------------------------------------------------------|
A|--------------------------------------------------------------------|
E|-------5555-----3333333------555555----777777777----5555--33333333--|

"...I just wanted you to know...", this starts from 2:48
G|-----------------------------------------------------------------------|
D|-----------------------------------------------------------------------|
A|-----------------------------------------------------------------------|
E|-----55555555555-----7777777777777---55555---333333333--22222--000000--|

G|------------------------------------------------------------------|
D|------------------------------------------------------------------|
A|------------------------------------------------------------------|
E|-----555555555--7777777777777- 555555555555-----------------------|

G|----------------------------------------------------------------------------|
D|----------------------------------------------------------------------------|
A|----------------------------------------------------------------------------|
E|-----7777777777777---55555---333333333--22222--000000-----------------------|

G|------------------------------------------------------------------|
D|------------------------------------------------------------------|
A|------------------------------------------------------------------|
E|-----555555555--7777777777777- 555555555555-----------------------|

Just Before "are you thinking of me" at 3:41
G|-----------------------------------------------------------------------------------|
D|-----------------------------------------------------------------------------------|
A|-------------------------------------------------------5---------------------------|
E|----3333333333---555555555555----7---5--7-------------7---5---7---7777---55555555--|

G|-----------------------------------------------------------------------------------|
D|-----------------------------------------------------------------------------------|
A|-------------------------------------------------------5---------------------------|
E|----3333333333---555555555555----7---5--7-------------7---5---7---7777---55555555--|

G|--------------------------------------------------------------|
D|--------------------------------------------------------------|
A|--------------------------------------------------------------|
E|-----3333333333--- 555555555555-------------------------------|

Outro [4:06] repeat 'till the end
G|--------------------------------------------------------------------------------------------------|
D|--------------------------------------------------------------------------------------------------|
A|--55555555-------------------------55555555-------------------------------------------------------|
E|--------------333333---555555-----------------333333----555555------7777777777---333333---555555--|
Suggest correction
Creating personal tab
Creating personal tab
You can edit any tab online and save it as your Personal.

You can edit, replace or remove any tab part or add personal notes – all changes will be seen only by you.

Personal tabs can be accessed anytime from any device, even offline.
Learn more »
Give kudos to tab author, rate the tab!
1 2 3 4 5
comments
print report bad tab
2 comments total.
0 reply
clash.vedder 10 Sep 24, 2013 09:48 AM

Good tab. something is missing though. Would add a bit more of funk to make it livelier.

0 reply
Mat Bonkers 58 Jun 20, 2014 11:10 AM

Lack of formatting.

guest
You may want to rate the tab now too:
select rating
Wanna post a correction for this tab? Suggest correction