Oops, an error
Loading. Please wait.

This Is The Best Day Ever bass

version 2
version 2

Whole song

Interactive

1,500 views 3 this week
1 commentread comment
1 2 3 4 5
x 4
add to favorites
×
Save as Personal and add changes to this tab that will be seen only by you. Learn more ›
×
You can save this tab as Personal to edit and correct it or add notes. All changes will be seen only by you. Learn more »
launch autoscroll
font size
0
reset
guitar tuner
edit
Autoscroll
slow
fast
+/-
esc
set tempo
stop
Author
-------------------------------------------------------------------------------
		  This Is The Best Day Ever - My Chemical Romance
-------------------------------------------------------------------------------

 Tabbed By : dvanwyk
 e-mail: dustinvanwyk@yahoo.com

 Tuning:Standard
 Intro x2
G|--------------------------------------------------------------------------|
D|--------------------------------------------------------------------------|
A|-------------------------------------3-3-3-3-3-3-3-3-3-3-3-3-3-3-3-3-3-3--|
E|0-0-0-0-0-0-0-0-0-0-0-0-0-0-0-0-0-0---------------------------------------|

 Verse "And we can run, from the backdrop of these gears and scalpels"
G|-------------------------------------------------------------------------|
D|-------------------------------------------------------------------------|
A|------------------------------------33333333-55555555-33333333-22222222--|
E|00000000-22222222-33333333-22220000--------------------------------------|

G|----------------------------------------------------------------------------|
D|----------------------------------------------------------------------------|
A|-------------------------------------0h33333333-55555555-33333333-22222222--|
E|00000000-22222222-333333/55-22220000----------------------------------------|

 Chorus "Every hour, on the hour, they drew blood"
G|----------------------------------------------------------|
D|----------------------------------------------------------|
A|333----------333----------333----------333----------------|
E|----333-000------333-000------333-000------333-000-0-0-0--|

 Verse "Well I felt I couldn't take, another day inside this place"
G|-------------------------------------------------------------------------|
D|-------------------------------------------------------------------------|
A|------------------------------------33333333-55555555-33333333-22222222--|
E|00000000-22222222-33333333-22220000--------------------------------------|

G|----------------------------------------------------------------------------|
D|----------------------------------------------------------------------------|
A|-------------------------------------0h33333333-55555555-33333333-22222222--|
E|00000000-22222222-333333/55-22220000----------------------------------------|

 Chorus "Well I thought I heard you"
G|-----------------------------------------------------------------------|
D|-----------------------------------------------------------------------|
A|---2-2-2----0-0-0--------------------2222222200000000------------------|
E|00-------00-------00-3-3-3-00-2-2-2------------------3333333322222222--|

G|-----------------------------------------------------------------|
D|-------------------------------------------------------5~--------|
A|---0-0-0-----------------------------3333333333333333-----5~-3~--|
E|00-------00-3-3-3-00-2-2-2-00-0-0-0------------------------------|

 Bridge "Someday, this day, we kept falling down"
G|---------------------------------------------------------------------|
D|-----------------444444445555----------------------4444444455557777--|
A|-----------------------------5555-3333333333333333-------------------|
E|3333333333333333-----------------------------------------------------|

G|------------------------------------------------------|
D|------------------------------------------------------|
A|-----------------33333333-55555555-33333333-22222222--|
E|0--02--23--32-0---------------------------------------|

G|---------------------------------------------------------------------|
D|-----------------444444445555----------------------4444444455557777--|
A|-----------------------------5555-3333333333333333-------------------|
E|3333333333333333-----------------------------------------------------|

G|-----------------------------------------------------------|
D|-----------------------------------------------------------|
A|-----------------33333333-55555555-77777777-9999-10101010--|
E|0--02--23--32-0--------------------------------------------|

 Outro "Well I thought I heard you say to me"
G|------------------------------------------------------------------|
D|----------------4-4-4-4-5-5----------------------4-4-4-4-5-5-7-7--|
A|----------------------------5-5--3-3-3-3-3-3-3-3------------------|
E|3-3-3-3-3-3-3-3---------------------------------------------------|

G|--------------------------------------------------|
D|---------------------------------5~---------------|
A|--------------33333333-55555555-----5~-3~---------|
E|0-02-23-32-0---------------------------------3-3--|

| /  slide up
| \  slide down
| h  hammer-on
| p  pull-off
| ~  vibrato
| +  harmonic
| x  Mute note
===============================================================================

            
            
Suggest correction
Creating personal tab
Creating personal tab
You can edit any tab online and save it as your Personal.

You can edit, replace or remove any tab part or add personal notes – all changes will be seen only by you.

Personal tabs can be accessed anytime from any device, even offline.
Learn more »
comments
print report bad tab
1 comment total.
0 reply
musicman_1 10 Dec 01, 2007 06:49 AM

Sweet tab... 5 stars

guest
You may want to rate the tab now too:
select rating
Wanna post a correction for this tab? Suggest correction