Oops, an error
Loading. Please wait.

To The End Tab

version 2
version 2
22,347 views 84 this week
15 commentsread comments
1 2 3 4 5
accurate
x 27
add to favorites
launch autoscroll
font size
0
reset
how to read this tab
guitar tuner
Autoscroll
slow
fast
+/-
esc
set tempo
stop
Help us to improve Ultimate-Guitar.com Take our survey!
×
Author
    ||***************************************************************||
  ||||**** DIGITALLY RE-MASTERED... well... I tabbed it again... ****|||
    ||***************************************************************||


My Chemical Romance - To The End
From the album - Three Cheers For Sweet Revenge

Okay, my first version of this was... well, crap. So basically, I've completely re-vamped the whole tab

Please re-rate it! Comments & corrections welcome: mathamology@hotmail.com


|:| x - mute string
|:| ^ - bend
|:| ~ - vibrato
|:| h - hammer on
|:| p - pull off
|:| . - palm mute

    [1] Guitar one
    [2] Guitar two

---------------------------------|---------|---------------------------------
---------------------------------|- Intro -|---------------------------------
---------------------------------|---------|---------------------------------



[1]
e|:|--------5---------|--------5-44-4----|------------------|----------------|
B|:|-66-666-6-99-9-66-|-66-666-6-66-6-66-|------------------|-----55-555-----|
G|:|-77-777-7-77-7-77-|-66-666-6-66-6-66-|-----66---99-9-66-|-----55-555-5-6-|
D|:|-xx-xxx-x-xx-x-xx-|-xx-xxx-x-xx-x-xx-|-88-888-8-88-8-88-|-77-777-777-7-7-|
A|:|-55-555-5-55-5-55-|-44-444-4-44-4-44-|-xx-xxx-x-xx-x-xx-|-xx-xxx-xxx-x-x-|
E|:|------------------|------------------|-66-666-6-66-6-66-|-55-555-555-5-5-|

    "He calls his mansion not a house but a tomb...
    "He's always choking from the stench and the fume...
    "The wedding party all collapsed in the room...
    "So send my resignation to the bride and the groom..."

    "Lets go down!"



---------------------------------|---------|---------------------------------
---------------------------------|-Verse 1-|---------------------------------
---------------------------------|---------|---------------------------------



[1]
e|:|--------5---------|
B|:|-66-666-6-66-6-66-|
G|:|-77-777-7-77-7-77-|
D|:|-xx-xxx-x-xx-x-xx-|
A|:|-55-555-5-55-5-55-|
E|:|------------------|
 | |  
[2]|
e|:|---------------------------------|
B|:|------------10p8-----------------|
G|:|------10h12-----------10h12-9h10-|
D|:|-9h12------------9h12------------|
A|:|---------------------------------|
E|:|---------------------------------|

    "This elevator only goes up to ten..."

[1]
e|:|--------5-44-4----|------------------|
B|:|-66-666-6-66-6-66-|------------------|
G|:|-66-666-6-66-6-66-|-----66---99-9-66-|
D|:|-xx-xxx-x-xx-x-xx-|-88-888-8-88-8-88-|
A|:|-44-444-4-44-4-44-|-xx-xxx-x-xx-x-xx-|
E|:|------------------|-66-666-6-66-6-66-|
 | |
[2]|               
e|:|-------------------------------|--|
B|:|----------10p8-----------------|--|
G|:|----10h12-----------10h12-9h10-|--|
D|:|-12------------9h12------------|--|
A|:|-------------------------------|x2|
E|:|-------------------------------|--|

    "He's not around he's always looking at men...
    "Down by the pool he doesn't have many friends as they are..."

[1]
e|:|----------------|
B|:|----555-555-----|
G|:|----555-555-5-6-|
D|:|-77-777-777-7-7-|
A|:|-xx-xxx-xxx-x-x-|
E|:|-55-555-555-5-5-|
 | |
[2]|
e|:|---------------------------------------|
B|:|---------------------------------------|
G|:|------------10p8-----------------------|
D|:|------10h12------10h12-9h10p9-9b(10)r~-|
A|:|-9h12----------------------------------|
E|:|---------------------------------------|



    "Face down and bloated snap shot with the lens..."



--------------------------------|------------|-------------------------------
--------------------------------|-Pre Chorus-|-------------------------------
--------------------------------|------------|-------------------------------



[1]
e|:|----------------------------------------------|
B|:|----------------------------------------------|
G|:|-7>-----5>-----2>-----------------------------|
D|:|-7>-----5>-----2>-----777777/99/77/99/1111/12-|
A|:|-5>-----3>-----0>-----777777-xx-xx-xx-x x--x -|
E|:|----------------------555555/77/55/77/9 9 /10-|

    "If you marry me...
    "Would you bury me?...
    "Would you carry me to the end?..."



 
---------------------------------|----------|--------------------------------
---------------------------------|- Chorus -|--------------------------------
---------------------------------|----------|--------------------------------



[1]
e|:|--------------------------------------------------------------|
B|:|--------------------------------------------------------------|
G|:|-77-777-777-777-7/55-555-555-555-5----------------------------|
D|:|-77-777-777-777-7/55-555-555-555-5-777777777777/8888888888888-|
A|:|-55-555-555-555-5/33-333-333-333-3-777777777777/8888888888888-|
E|:|-----------------------------------555555555555/6666666666666-|
 | |
[2]|
e|:|-------------------------------------------------------------------------|
B|:|-66-666-666-666-6/55-555-555-555-5---------------------------------------|
G|:|-77-777-777-777-7/55-555-555-555-5-55-555-555-555-5-----1010-1077-777-77-|
D|:|-----------------------------------77-777-777-777-7/88-88 8 -8 88-888-88-|
A|:|-55-555-555-555-5/33-333-333-333-3---------------------------------------|
E|:|-----------------------------------55-555-555-555-5/66-66 6 -6 66-666-66-|

    "Say goodbye, To the vows you take...
    "Say goodbye, To the life you make...
    "Say goodbye, To the hearts you break...
    "And all the cyanide that you've drank"




---------------------------------|---------|---------------------------------
---------------------------------|-Verse 2-|---------------------------------
---------------------------------|---------|---------------------------------



>> Pre verse part

[1]
e|:|----------------------------------|
B|:|----------------------------------|
G|:|-7------------7-7-------------7-7-|
D|:|-7------------7-7-------------7-7-|
A|:|-5------------5-5-------------5-5-|
E|:|----------------------------------|
 | |
[2]|
e|:|----------------------------------|
B|:|----------------------------------|
G|:|----------------------------------|
D|:|------10h12-13p12------10h12-9h10-|
A|:|-9h12-------------9h12------------|
E|:|----------------------------------|


<< Verse begins



[1]
e|:|--------5---------|
B|:|-66-666-6-66-6-66-|
G|:|-77-777-7-77-7-77-|
D|:|-xx-xxx-x-xx-x-xx-|
A|:|-55-555-5-55-5-55-|
E|:|------------------|
 | |  
[2]|
e|:|---------------------------------|
B|:|------------10p8-----------------|
G|:|------10h12-----------10h12-9h10-|
D|:|-9h12------------9h12------------|
A|:|---------------------------------|
E|:|---------------------------------|

    "She keeps a picture of the body she lends..."

[1]
e|:|--------5-44-4----|------------------|----------------|
B|:|-66-666-6-66-6-66-|------------------|----555-555-----|
G|:|-66-666-6-66-6-66-|-----66---99-9-66-|----555-555-5-6-|
D|:|-xx-xxx-x-xx-x-xx-|-88-888-8-88-8-88-|-77-777-777-7-7-|
A|:|-44-444-4-44-4-44-|-xx-xxx-x-xx-x-xx-|-xx-xxx-xxx-x-x-|
E|:|------------------|-66-666-6-66-6-66-|-55-555-555-5-5-|
 | |
[2]|               
e|:|-------------------------------|--|
B|:|----------10p8-----------------|--|
G|:|----10h12-----------10h12-9h10-|--|
D|:|-12------------9h12------------|--|
A|:|-------------------------------|x3|
E|:|-------------------------------|--|

    "Got nasty blisters from the money she spends...
    "She's got a life of her own...
    "And it shows by the Benz...
    "She drives at 90 by the Barbie's and Ken's..."

[1]
e|:|--------5---------|--------5-44-4----|------------------|
B|:|-66-666-6-99-9-66-|-66-666-6-66-6-66-|------------------|
G|:|-77-777-7-77-7-77-|-66-666-6-66-6-66-|-----66---99-9-66-|
D|:|-xx-xxx-x-xx-x-xx-|-xx-xxx-x-xx-x-xx-|-88-888-8-88-8-88-|
A|:|-55-555-5-55-5-55-|-44-444-4-44-4-44-|-xx-xxx-x-xx-x-xx-|
E|:|------------------|------------------|-66-666-6-66-6-66-|  
 | |
[2]|               
e|:|-------------------------------|--|
B|:|----------10p8-----------------|--|
G|:|----10h12-----------10h12-9h10-|--|
D|:|-12------------9h12------------|--|
A|:|-------------------------------|x3|
E|:|-------------------------------|--|

    "If you ever say never too late...
    "I'll forget all the diamonds you ate...
    "Lost in coma and covered in cake..."


[1]
e|:|----------------|
B|:|-----55-555-----|
G|:|-----55-555-5-6-|
D|:|-77-777-777-7-7-|
A|:|-xx-xxx-xxx-x-x-|
E|:|-55-555-555-5-5-|
 | |
[2]|
e|:|---------------------------------------|
B|:|---------------------------------------|
G|:|------------10p8-----------------------|
D|:|------10h12------10h12-9h10p9-9b(10)r~-|
A|:|-9h12----------------------------------|
E|:|---------------------------------------|
    
    "Increase the medication...
    "Share the vows at the wake..."



--------------------------------|------------|-------------------------------
--------------------------------|-Pre Chorus-|-------------------------------
--------------------------------|------------|-------------------------------



[1]
e|:|----------------------------------------------|
B|:|----------------------------------------------|
G|:|-7>-----5>-----2>-----------------------------|
D|:|-7>-----5>-----2>-----777777/99/77/99/1111/12-|
A|:|-5>-----3>-----0>-----777777-xx-xx-xx-x x--x -|
E|:|----------------------555555/77/55/77/9 9 /10-|

    "If you marry me...
    "Would you bury me?...
    "Would you carry me to the end?..."



---------------------------------|----------|--------------------------------
---------------------------------|- Chorus -|--------------------------------
---------------------------------|----------|--------------------------------



[1]
e|:|--------------------------------------------------------------|--|
B|:|--------------------------------------------------------------|--|
G|:|-77-777-777-777-7/55-555-555-555-5----------------------------|--|
D|:|-77-777-777-777-7/55-555-555-555-5-77777777777-78888888888888-|--|
A|:|-55-555-555-555-5/33-333-333-333-3-77777777777-78888888888888-|x2|
E|:|-----------------------------------55555555555-56666666666666-|--|
 | |
[2]|
e|:|----------------------------------------------------------------------|--|
B|:|66-666-666-666-6/55-555-555-555-5-------------------------------------|--|
G|:|77-777-777-777-7/55-555-555-555-5-55-555-555-555-5-----10101077-777-77|--|
D|:|----------------------------------77-777-777-777-7/88-88 8 8 88-888-88|--|
A|:|55-555-555-555-5/33-333-333-333-3-------------------------------------|x2|
E|:|----------------------------------55-555-555-555-5/66-66 6 6 66-666-66|--|

    "Say goodbye, To the vows you take...
    "Say goodbye, To the life you make...
    "Say goodbye, To the hearts you break...
    "And all the cyanide that you've drank"



---------------------------------|--------|----------------------------------
---------------------------------|- Solo -|----------------------------------
---------------------------------|--------|----------------------------------


[1]
e|:|-------------------|--|
B|:|-------------------|--|
G|:|-7^-------5^-------|--|
D|:|-------------------|--|
A|:|-5^-------3^-------|x2|
E|:|-------------------|--|
 | |
[2]|
e|:|-------------------|--|
B|:|-------------------|--|
G|:|-7--9-10~---7-9-6~-|--|
D|:|-------------------|--|
A|:|-------------------|x2|
E|:|-------------------|--|



[1]
e|:|-------------------------------------------------------------------------|
B|:|-------------------------------------------------------------------------|
G|:|-77777777----------------------------77777777-------------------55556666-|
D|:|-77777777-88888888-77777777-88888888-77777777-88888888-55555555-55556666-|
A|:|-55555555-88888888-77777777-88888888-55555555-88888888-55555555-33334444-|
E|:|----------66666666-55555555-66666666----------66666666-33333333----------|
 | |
[2]|
e|:|-------------------------------------------------------------------|--|-10~-|
B|:|---------------8------8-10----8-10-11p10p8-11-8-10----8------------|--|-----|
G|:|-7-9-10-7-9-10---7-10------10----------------------10---9-10-7-9-5-|--|-----|
D|:|-------------------------------------------------------------------|--|-----|
A|:|-------------------------------------------------------------------|x2|-----|
E|:|-------------------------------------------------------------------|--|-----|



---------------------------------|---------|---------------------------------
---------------------------------|- Outro -|---------------------------------
---------------------------------|---------|---------------------------------



[1]
e|:|--------------------------------------------------------------|--|
B|:|--------------------------------------------------------------|--|
G|:|-77-777-777-777-7/55-555-555-555-5----------------------------|--|
D|:|-77-777-777-777-7/55-555-555-555-5-77777777777-78888888888888-|--|
A|:|-55-555-555-555-5/33-333-333-333-3-77777777777-78888888888888-|x2|
E|:|-----------------------------------55555555555-56666666666666-|--|
 | |
[2]|
e|:|----------------------------------------------------------------------|--|
B|:|66-666-666-666-6/55-555-555-555-5-------------------------------------|--|
G|:|77-777-777-777-7/55-555-555-555-5-55-555-555-555-5-----10101077-777-77|--|
D|:|----------------------------------77-777-777-777-7/88-88 8 8 88-888-88|--|
A|:|55-555-555-555-5/33-333-333-333-3-------------------------------------|x2|
E|:|----------------------------------55-555-555-555-5/66-66 6 6 66-666-66|--|

    "Say goodbye, To the vows you take...
    "Say goodbye, To the life you make...
    "Say goodbye, To the hearts you break...
    "And all the cyanide that you've drank"


[1]
e|:|-----------------------|
B|:|-----------------------|
G|:|-33333333/55555555---7-|
D|:|-33333333/55555555---7-|
A|:|-11111111/33333333---5-|
E|:|-----------------------|

    "...To The End..."


Hope you enjoy this much more than my first!
Suggest correction
What's this?
You can suggest a correction to this tab. Community and Mods will review your correction and vote to approve or reject it.
comments
print report bad tab
15 comments total. Showing first comments. show 1 bad comment
+2 reply
MCRrocks 501 wrote on April 29 2005, 12:00 am

this doesn't sound like it...

0 reply
Mathamology 3,731 wrote on August 13 2005, 12:00 am

this is currently being re-written. watch this space.

guest
You may want to rate the tab now too:
select rating
Please do not post tabs as comments. Select "correction" instead!