Oops, an error
Loading. Please wait.

To The End Tab

version 4
version 4
2,055 views 1 this week
3 commentsread comments
1 2 3 4 5
accurate
x 5
add to favorites
launch autoscroll
font size
0
reset
how to read this tab
guitar tuner
Tab Pro tools
  • play this tab
  • loop segment
  • change instrument
  • show fretboard
  • metronome
×
Best way to learn
"To The End"
Autoscroll
slow
fast
+/-
esc
set tempo
stop
Contributor
My Chemical Romance To the end
From the album: Three cheers for my sweet revenge
Track 3
Tabbed by Liam
Email: guitar_rocker_47@hotmail.com
Tuning: standard

Intro
e|--------------------------------------------------------------------|
B|--------------------------------------------------------------------|
G|-777-777-777-777--666-666-666-666--333-333-333-333------------------|
D|-xxx-xxx-xxx-xxx--xxx-xxx-xxx-xxx--xxx-xxx-xxx-xxx--777-777-777-777-|
A|-555-555-555-555--444-444-444-444--111-111-111-111--xxx-xxx-xxx-xxx-|
E|----------------------------------------------------555-555-555-555-|

Verse
Guitar 
e|-----------------------------------------------------------|
B|-----------------------------------------------------------|
G|--7-7-7--7-7-7--7-7-7--7-7-7---6-6-6--6-6-6---6-6-6--6-6-6-|
D|--x-x-x--x-x-x--x-x-x--x-x-x---x-x-x--x-x-x---x-x-x--x-x-x-|
A|--5-5-5--5-5-5--5-5-5--5-5-5---4-4-4--4-4-4---4-4-4--4-4-4-|
E|-----------------------------------------------------------|

Guitar 2
e|---------5-----------------------5---------------------5---|
B|-----6-8---8-----6-8-5-6-----6-8---8----6-8-5-6----6-8---8-|
G|-5-7---------5-7---------5-7---------5-7--------5-7--------|
D|-----------------------------------------------------------|
A|-----------------------------------------------------------|
E|-----------------------------------------------------------|
Guitar 1
e|----------------------------------------------------------|
B|----------------------------------------------------------|
G|--3-3-3--3-3-3--3-3-3--3-3-3------------------------------|
D|--x-x-x--x-x-x--x-x-x--x-x-x---7-7-7--7-7-7--7-7-7--7-7-7-|
A|--1-1-1--1-1-1--1-1-1--1-1-1---x-x-x--x-x-x--x-x-x--x-x-x-|
E|-------------------------------5-5-5--5-5-5--5-5-5--5-5-5-|

Guitar 2
e|-------------------5----------------------5---------------|
B|----6-8-5-6----6-8---6----6-8-5-6-----6-8---6-----6b~~~---|
G|-5-7--------5-7--------5-7--------5-7---------5-7---------|
D|----------------------------------------------------------|
A|----------------------------------------------------------|
E|----------------------------------------------------------|

Pre Chorus (just lightly palm mute here)
e|---------------------------------------------------------------------|
B|---------------------------------------------------------------------|
G|-7~~~~---5~~~~-------------------------------------------------------|
D|-7~~~~---5~~~~----7~~~~----7-7-7-7-7-7--9-9-\-7-7-/-9-9-/-11-11-/-12-|
A|-5~~~~---3~~~~----7~~~~----7-7-7-7-7-7--x-x-\-x-x-/-x-x-/--x--x-/--x-|
E|------------------5~~~~----5-5-5-5-5-5--7-7-\-5-5-/-7-7-/--9--9-/-10-|
PM                           ***********

Chorus
e|-------------------------------------------------------------------------------|
B|-------------------------------------------------------------------------------|
G|-7-x-77-x-77-x-77-x--55-x-55-x-55-x-55-x---------------------------------------|
D|-7-x-77-x-77-x-77-x--55-x-55-x-55-x-55-x--77-x-77-x-77-x-77-x--8-x-88-x-88-x-88|
A|-5-x-55-x-55-x-55-x--33-x-33-x-33-x-33-x--77-x-77-x-77-x-77-x--8-x-88-x-88-x-88|
E|------------------------------------------55-x-55-x-55-x-55-x--6-x-66-x-66-x-66|

Post Chorus
Guitar 1
e|-----------------------------|
B|-----------------------------|
G|-7----------7-7----------7-7-|
D|-7----------7-7----------7-7-|
A|-5----------5-5----------5-5-|
E|-----------------------------|

Guitar 2
e|----------5------------------|
B|------6-8---6--------6-8-6-6-|
G|-5-7------------5-7----------|
D|-----------------------------|
A|-----------------------------|
E|-----------------------------|

Chorus 2
e|----------------------------------------------------------------------------|
B|----------------------------------------------------------------------------|
G|-7-x-77-x-77-x-77-x--55-x-55-x-55-x-55-x------------------------------------|
D|-7-x-77-x-77-x-77-x--55-x-55-x-55-x-55-x--7777777777777777--8888888888888888|
A|-5-x-55-x-55-x-55-x--33-x-33-x-33-x-33-x--7777777777777777--8888888888888888|
E|------------------------------------------5555555555555555--6666666666666666|

Pre solo (play the notes within the octaves to a few times)
e|------------------------------|
B|------------------------------|
G|--7b------5b------7b------5b--|
D|--x-------x-------x-------x---|
A|--5b------3b------5b------3b--|
E|------------------------------|

Solo
Guitar 1
e|----------------------------------------------------------|
B|----------------------------------------------------------|
G|---77-77-77-77--------------------------------------------|
D|---77-77-77-77---88-88-88-88---77-77-77-77---88-88-88-88--|
A|---55-55-55-55---88-88-88-88---77-77-77-77---88-88-88-88--|
E|-----------------66-66-66-66---55-55-55-55---66-66-66-66--|

Guitar 2
e|-----------------------------------------------------------|
B|-3-3-5-6-3-5-6-8-5-6-8-6-8-10-11-8-10-6-8-5--11-8-10-6-8-5-|
G|-----------------------------------------------------------|
D|-----------------------------------------------------------|
A|-----------------------------------------------------------|
E|-----------------------------------------------------------|

Guitar 1
E|---------------------------------------------------------------------|
B|---------------------------------------------------------------------|
G|-7-7-7-7-7-7-7-7------------------------------------5-5-5-5--6-6-6-6-|
D|-7-7-7-7-7-7-7-7--8-8-8-8-8-8-8-8--5-5-5-5-5-5-5-5--5-5-5-5--6-6-6-6-|
A|-5-5-5-5-5-5-5-5--8-8-8-8-8-8-8-8--5-5-5-5-5-5-5-5--3-3-3-3--4-4-4-4-|
E|------------------6-6-6-6-6-6-6-6--3-3-3-3-3-3-3-3-------------------|

Guitar 2
e|--------------------------------------------------------------------------|
B|-3-3-5-6-3-5-6-8-5-6-8-6-8-10-11-8-10-6-8-5--11-8-10-6-8-5--3h5p4h5p3h5b~-|
G|--------------------------------------------------------------------------|
D|--------------------------------------------------------------------------|
A|--------------------------------------------------------------------------|
E|--------------------------------------------------------------------------|

Outro
Guitar 1
e|---------------------------------------------------------------------------|
B|---------------------------------------------------------------------------|
G|-7777777777777777--5555555555555555----------------------------------------|
D|-7777777777777777--5555555555555555--7777777777777777--8888888888888888--7-|
A|-5555555555555555--3333333333333333--7777777777777777--8888888888888888--7-|
E|-------------------------------------5555555555555555--6666666666666666--5-|

Guitar 2
e|---------------------------------------------------------------------------|
B|-6666--------------5555----------------------------------------------------|
G|-7777777777777777--5555555555555555----------------------------------------|
D|-xxxxxxxxxxxxxxxx--xxxxxxxxxxxxxxxx--7777777777777777--8888888888888888--7-|
A|-5555555555555555--3333333333333333--xxxxxxxxxxxxxxxx--xxxxxxxxxxxxxxxx--x-|
E|-------------------------------------5555555555555555--6666666666666666--5-|


Order

Intro
Verse
Pre Chorus
Chorus
Post Chorus
Verse x2
Pre Chorus
Chorus 2 x2
Pre solo
Solo
Chorus 2 x2
Outro

This is a pretty sweet song –plz leave comments to weather you like it or not
(the tab) all feedback is welcome
comments
print report bad tab
3 comments total.
0 reply
dantheman8392 wrote on March 27 2006, 04:30 pm

grate work dude

0 reply
neveragain_off wrote on March 31 2006, 02:03 pm

yer intro is totallly wrong

0 reply
gigson111 wrote on May 18 2006, 05:10 pm

dude i didnt ev en c and intro

I want to post or [tab]
guest
You may want to rate the tab now too:
select rating
Please do not post tabs as comments. Select "correction" instead!