Oops, an error
Loading. Please wait.

To The End Tab

version 5
version 5
10,563 views 3 this week
7 commentsread comments
1 2 3 4 5
please rate
add to favorites
launch autoscroll
font size
0
reset
how to read this tab
guitar tuner
Autoscroll
slow
fast
+/-
esc
set tempo
stop
Help us to improve Ultimate-Guitar.com Take our survey!
×
~=let ring
X=mute

Intro
e--x-xxxx-x-xxxx--|
b--x-xxxx-x-xxxx--|
g--x-xxxx-x-xxxx--|
d--x-xxxx-x-xxxx--|
a--x-xxxx-x-xxxx--|
E--x-xxxx-x-xxxx--| X4

Verse
e--3-33333-33333-33333------| e---------------------------|
b--3-33333-33333-33333------| b---------------------------|
g--0-00000-00000-00000------| g---------------------------|
d--0-00000-00000-00000------| d--2-22222-22222-22222------|
a--2-22222-22222-22222------| a--2-22222-22222-22222-2-2--|
E--3-33333-33333-33333-3-2--| E--0-00000-00000-00000-0-0--|

e----------------------------| e--0-00000-00000-00000-0000--|
b----------------------------| b--1-11111-11111-11111-1111--|
g--6-66666-66666-66666-6666--| g--0-00000-00000-00000-0000--|
d--6-66666-66666-66666-6666--| d--2-22222-22222-22222-2222--|
a--4-44444-44444-44444-4444--| a--3-33333-33333-33333-3333--|
E----------------------------| E----------------------------|
Play this twice

Interlude (Gtr 1)
e--3--3--3--3-3-|--------------|--------------|-0--0--0--0-0-|
b--3--3--3--3-3-|--------------|--------------|-1--1--1--1-1-|
g--0--0--0--0-0-|--------------|-6--6--6--6-6-|-0--0--0--0-0-|
d--0--0--0--0-0-|-2--2--2--2-2-|-6--6--6--6-6-|-2--2--2--2-2-|
a--2--2--2--2-2-|-2--2--2--2-2-|-4--4—-4--4-4-|-3--3--3--3-3-|
 E--3--3--3--3-3-|-0--0--0--0-0-|--------------|--------------|


Interlude (Gtr 2)
e-------------------|------------|----------------|------------|
b-------------------|------------|----------------|------------|
g-------------------|------------|-6--6--6--6-7-6-|-5--5--7--5-|
d--5--5--5-7-9-7--5-|-2--2--4--2-|-6--6--6--6-7-6-|-5--5--7--5-|
a--5--5--5-7-9-7--5-|-2--2—-4--2-|-4--4--4--4-5-4-|-3--3--5--3-|
E--3--3--3-5-7-5--3-|-0--0--2--0-|----------------|------------|

Verse (Gtr 2)
e--3-33333-33333-33333------| e---------------------------|
b--3-33333-33333-33333------| b---------------------------|
g--0-00000-00000-00000------| g---------------------------|
d--0-00000-00000-00000------| d--2-22222-22222-22222------|
a--2-22222-22222-22222------| a--2-22222-22222-22222-2-2--|
E--3-33333-33333-33333-3-2--| E--0-00000-00000-00000-0-0--|

e----------------------------| e--0-00000-00000-00000-0000--|
b----------------------------| b--1-11111-11111-11111-1111--|
g--6-66666-66666-66666-6666--| g--0-00000-00000-00000-0000--|
d--6-66666-66666-66666-6666--| d--2-22222-22222-22222-2222--|
a--4-44444-44444-44444-4444--| a--3-33333-33333-33333-3333--|
E----------------------------| E----------------------------|
Play this twice

Verse (Gtr 1)

e---------|--------|--------|---------|
b---------|--------|--------|---------|
g---------|--------|----6~~-|---0-5~~-|
d---0-5~~-|----2~~-|---6----|---------|
a---------|---2----|--4-----|--3------|
E--3------|--0-----|--------|---------|

Interlude (Gtr 1)
e--3--3--3--3-3-|--------------|--------------|-0--0--0--0-0-|
b--3--3--3--3-3-|--------------|--------------|-1--1--1--1-1-|
g--0--0--0--0-0-|--------------|-6--6--6--6-6-|-0--0--0--0-0-|
d--0--0--0--0-0-|-2--2--2--2-2-|-6--6--6--6-6-|-2--2--2--2-2-|
a--2--2--2--2-2-|-2--2--2--2-2-|-4--4—-4--4-4-|-3--3--3--3-3-|
E--3--3--3--3-3-|-0--0--0--0-0-|--------------|--------------|

Gtr 1
e|---------------|---------|
B|---------------|---------|
G|--5--7--8--10--|---------|
D|--5--7--8--10--|--5~~~~--|
A|--3--5--6---8--|--5~~~~--|
E|---------------|--3~~~~--|
Gtr 2
e|------------------------------|----------|
B|------------------------------|----------|
G|--5-5-5-7-7-7-8-8-8-10-10-10--|--12~~~~--|
D|--5-5-5-7-7-7-8-8-8-10-1--10--|--12~~~~--|
A|--3-3-3-5-5-5-6-6-6--8--8--8--|--10~~~~--|
E|------------------------------|----------|


Suggest correction
What's this?
You can suggest a correction to this tab. Community and Mods will review your correction and vote to approve or reject it.
comments
We did not receive enough feedback on this tab! Please rate:
print report bad tab
1 2 3 4 5
7 comments total. Showing first comments.
0 reply
glennthrower 565 wrote on October 30 2007, 12:11 pm

This song is named incorectly, it should be "The End" not "To The End"

Please change


Looks ok

0 reply
Ibanezrockr 22 wrote on November 8 2007, 07:09 pm

Yeah, glennthrower's right. This is "The End", not "To The End". But, It looks fine to me, but I don't know what
happened that put those — things in the tab. You might want to go back and take those out.

Good job though

0 reply
Riotgirrl* 50 wrote on December 6 2007, 03:47 pm

Hey! this is The End! It sounds good to me at all

guest
You may want to rate the tab now too:
select rating
Please do not post tabs as comments. Select "correction" instead!