Oops, an error
Loading. Please wait.

To The End Tab

version 6
version 6
635 views 1 this week
1 commentread comment
1 2 3 4 5
1 last vote to show rating
add to favorites
launch autoscroll
font size
0
reset
how to read this tab
guitar tuner
Autoscroll
slow
fast
+/-
esc
set tempo
stop
Help us to improve Ultimate-Guitar.com Take our survey!
×
Author
Artist - My Chemical Romance
Album - 3 Cheers For Sweet Revenge
Year - 2004
Tuning - Standard
Intro / Verse
e---------------------------------------------------33-333-355-555-5--|
B-66-666-699-966-666-666-699-966-6-22-222-255-522-2-33-333-355-555-5--|
G-77-777-777-777-777-777-777-777-7-33-333-333-333-3-33-333-366-666-6--| x2
D-77-777-777-777-777-777-777-777-7-33-333-333-333-3-55-555-577-777-7--|
A-55-555-555-555-544-444-444-444-4-11-111-111-111-1-55-555-577-777-7--|
E---------------------------------------------------33-333-355-555-5--|

e----------------------------------|
B----------------------------------|
G------10-12-14-12-----10-12-9-10--| x4
D-10-12-----------10-12------------|
A----------------------------------|
E----------------------------------|
Prechorus
e-----------------------------------------------------------|
B-----------------------------------------------------------|
G-7-----------5------------22222222222222222222222222222222-|
D-7-----------5------------22222222222222222222222222222222-|
A-5-----------3------------00000000000000000000000000000000-|
E-----------------------------------------------------------|
Chorus
e-----------------------------------------------------------|
B-----------------------------------------------------------|
G-----------------------------------------------------------|
D-7-77-77-77-75-55-55-55-5-22222222222222223333333333333333-|
A-5-55-55-55-53-33-33-33-3-00000000000000001111111111111111-|
E-----------------------------------------------------------|
Breakdown
e-------------------5------|
B------------------6-------|
G-7-9-10--5-7-9---7--7-9-6-|
D---------------7----------|
A--------------------------|
E--------------------------|

e---------------------|
B---------------------|
G-7777-3333-2222-5555-|
D-7777-3333-2222-5555-|
A-5555-1111-0000-3333-|
E---------------------|
Suggest correction
Give kudos to tab author, rate the tab!
1 2 3 4 5
comments
print report bad tab
1 comment total.
0 reply
bmo12334 33 Jul 24, 2014 04:05 PM

awesome tab

guest
You may want to rate the tab now too:
select rating
Wanna post a correction for this tab? Suggest correction