Oops, an error
Loading. Please wait.

Under Pressure tab

version 2
version 2

Whole song

Interactive

22,725 views 6 this week
15 commentsread comments
1 2 3 4 5
x 13
add to favorites
×
Save as Personal and add changes to this tab that will be seen only by you. Learn more ›
×
You can save this tab as Personal to edit and correct it or add notes. All changes will be seen only by you. Learn more »
launch autoscroll
font size
0
reset
how to read this tab
guitar tuner
edit
Autoscroll
slow
fast
+/-
esc
set tempo
stop
-----------------------------------------------------------------------------
                             Under Pressure - My Chemical Romance & The Used
-----------------------------------------------------------------------------
Tabbed by: Kiefermatot
Email: bamcky2k_69@hotmail.com

Tuning: Standard - EADGBE

guitar 1 - lead guitar - Ray (My Chemical Romance)
guitar 2 - second leadest - Quinn, (The Used) - Drop D??  
guitar 3 - background guitar - Frank (My Chemical Romance)
guitar 4 - backup guitar - ??


Bass

E------------------|
B------------------|
G------------------|
D--0-0-0-0-0-0-----|
A--------------0x--|
E------------------|

*all guitars are silent except 4*

GUITAR 4

E--3-2-0----0h2-0----|
B--3-3-3----3---3-3--|
G--2-2-2----2---2-2--|
D-----------------0--|
A--------------------| X5
E--------------------|

GUITAR 1 (CLEAN)

E--------5------9-----------7----------5------------|
B----7--------------10----------8--------5----------|
G--7---7---7--9---9----9--7---7---7--6-----7-6-4----|
D------------------------------------------------7--|
A---------------------------------------------------| X6
E---------------------------------------------------|

GUITAR 2 (CLEAN)

E--------5------------5-----------3-----------0--|
B------7---7--------5---5-------3---3-------2----|
G----7-------7----6-------6---4-------4---2------|
D--0------------0-----------0-----------0--------|
A------------------------------------------------| X2
E------------------------------------------------|

E--------5--------5-------3-------0--------2--|
B------7-7-----5--5-----3-3-----2--------3----|
G----7---7---6----6---4---4---2--------2------|
D--0-------0--------0-------0--------0--------|
A---------------------------------------------| X4
E---------------------------------------------|

GUITAR 3 (DISTORTION)

E---------------------------------------|
B---------------------------------------|
G--77777777-----------------------------|
D--77777777-77777777-55555555-77777777--|
A--55555555-77777777-55555555-77777777--| X4
E-----------55555555-33333333-55555555--|

GUITAR 4 (DISTORTION)

E--22222222-00000000-00000000-00000000--|
B--33333333-22222222-33333333-22222222--|
G--22222222-22222222-00000000-22222222--|
D--00000000-22222222-00000000-22222222--|
A-----------00000000-22222222-00000000--| X4
E--------------------33333333-----------|

(ALL GUITARS ON ELECTRIC)

GUITAR 1

E-----------------------------------------------|
B-----------------------------------------------|
G--66666666-77777777-99999999-1111111111111111--|
D--XXXXXXXX-XXXXXXXX-XXXXXXXX--X-X-X-X-X-X-X-X--|
A--44444444-55555555-77777777--9-9-9-9-9-9-9-9--| X4
E-----------------------------------------------|

GUITAR 2

E--33333333-22222222-33333333-22222222-33333333-22222222-33333333-|
B--33333333-33333333-33333333-33333333-33333333-33333333-33333333-|
G--22222222-22222222-22222222-22222222-22222222-22222222-22222222-|
D--00000000-00000000-00000000-00000000-00000000-00000000-00000000-|
A-----------------------------------------------------------------|
E-----------------------------------------------------------------|
(continued)

E|-------2-----------0--|
B|-----3---3-------2----|
G|---2-------2---2------|
D|-0-----------0--------|
A|----------------------|
E|----------------------|


GUITAR 3


E|-----------------------------------------------------------------|
B|-----------------------------------------------------------------|
G|----------77777777----------77777777----------77777777-----------|
D|-55555555-77777777-55555555-77777777-55555555-77777777-55555555--|
A|-55555555-55555555-55555555-55555555-55555555-55555555-55555555--|
E|-33333333----------33333333----------33333333----------33333333--|

(continued)

E|---------------------------|
B|---------------------------|
G|-77777777----------77------|
D|-77777777-55555555-77-77~--|
A|-55555555-55555555-55-77~--|
E|----------33333333----55~--|

GUITAR 4

E|-00000000-00000000-00000000-00000000-00000000-00000000-00000000--|
B|-33333333-33333333-33333333-33333333-33333333-33333333-33333333--|
G|-00000000-22222222-00000000-22222222-00000000-22222222-00000000--|
D|-00000000-00000000-00000000-00000000-00000000-00000000-00000000--|
A|-22222222----------22222222----------22222222----------22222222--|
E|-33333333----------33333333----------33333333----------33333333--|

(continued)

E|-00000000-00000000-00-00~--|
B|-33333333-33333333-33-22~--|
G|-22222222-00000000-22-22~--|
D|-00000000-00000000-00-22~--|
A|----------22222222----00~--|
E|----------33333333---------|

GUITAR 4

E|--2h3-2----0-0h2-2-0--|
B|--3---3----3-3---3-3--|
G|--2---2----2-2---2-2--|
D|-------------------0--|
A|----------------------|
E|----------------------|

GUITAR 1 

E-------------|
B-------------|
G--7777777-0--|
D--XXXXXXX-0--|
A--5555555-0--|
E-------------|

GUITAR 1 (CLEAN)

E--------5------9-----------7----------5------------|
B----7--------------10----------8--------5----------|
G--7---7---7--9---9----9--7---7---7--6-----7-6-4----|
D------------------------------------------------7--|
A---------------------------------------------------| X4
E---------------------------------------------------|

GUITAR 2 (CLEAN)

E--------5--------5-------3-------0--------2--|
B------7-7-----5--5-----3-3-----2--------3----|
G----7---7---6----6---4---4---2--------2------|
D--0-------0--------0-------0--------0--------|
A---------------------------------------------| X4
E---------------------------------------------|

GUITAR 3 (DISTORTION)

E---------------------------------------|
B---------------------------------------|
G--77777777-----------------------------|
D--77777777-77777777-55555555-77777777--|
A--55555555-77777777-55555555-77777777--| X4
E-----------55555555-33333333-55555555--|

GUITAR 4 (DISTORTION)

E--22222222-00000000-00000000-00000000--|
B--33333333-22222222-33333333-22222222--|
G--22222222-22222222-00000000-22222222--|
D--00000000-22222222-00000000-22222222--|
A-----------00000000-22222222-00000000--| X4
E--------------------33333333-----------|

GUITAR 2

E-----------------------------------------------|
B-----------------------------------------------|
G--66666666-77777777-99999999-1111111111111111--|
D--XXXXXXXX-XXXXXXXX-XXXXXXXX--X-X-X-X-X-X-X-X--|
A--44444444-55555555-77777777--9-9-9-9-9-9-9-9--| X4
E-----------------------------------------------|

GUITAR 2

E|33333333-22222222-33333333-22222222-33333333-22222222-33333333------------|
B|33333333-33333333-33333333-33333333-33333333-33333333-33333333------------|
G|22222222-22222222-22222222-22222222-22222222-22222222-22222222-7-6--------|
D|00000000-00000000-00000000-00000000-00000000-00000000-00000000-----9-7-5-7|
A|--------------------------------------------------------------------------|
E|--------------------------------------------------------------------------|

GUITAR 3

E|-----------------------------------------------------------------|
B|-----------------------------------------------------------------|
G|----------77777777----------77777777----------77777777-----------|
D|-55555555-77777777-55555555-77777777-55555555-77777777-55555555--|
A|-55555555-55555555-55555555-55555555-55555555-55555555-55555555--|
E|-33333333----------33333333----------33333333----------33333333--|

(continued)

E|---------------------------|
B|---------------------------|
G|-77777777----------77------|
D|-77777777-55555555-77-77~--|
A|-55555555-55555555-55-77~--|
E|----------33333333----55~--|

GUITAR 4

E|-00000000-00000000-00000000-00000000-00000000-00000000-00000000--|
B|-33333333-33333333-33333333-33333333-33333333-33333333-33333333--|
G|-00000000-22222222-00000000-22222222-00000000-22222222-00000000--|
D|-00000000-00000000-00000000-00000000-00000000-00000000-00000000--|
A|-22222222----------22222222----------22222222----------22222222--|
E|-33333333----------33333333----------33333333----------33333333--|

(continued)

E|-00000000-00000000-00-00~--|
B|-33333333-33333333-33-22~--|
G|-22222222-00000000-22-22~--|
D|-00000000-00000000-00-22~--|
A|----------22222222----00~--|
E|----------33333333---------|


(ONLY GUITAR 4 AND 3)

GUITAR 3(CLEAN)

E|-------------------------------------------------------|
B|-------------------------------------------------------|
G|-----5-------5--------------55555555-------------------|
D|-5---5---5---5-----55555555-55555555-77777777-33333333-|
A|-5---3---5---3-----55555555-33333333-77777777-33333333-|
E|-3-------3---------33333333----------55555555-11111111-|
                     ........ ........
(continued..once again)

E|----------------------------|
B|----------------------------|
G|----------------------------|
D|-77777777-33333333-77777777-|
A|-77777777-33333333-77777777-|
E|-55555555-11111111-55555555-|
                     ........ 

GUITAR 4 (CLEAN)        (DISTORTED)

E--3----3----3----3--|--3----3----0--3--0--3--0--|
B--3----1----3----1--|--3----1----2--1--2--1--2--|
G--0----0----0----0--|--0----0----2--2--2--2--2--|
D--0----2----0----2--|--0----2----2--3--2--3--2--|
A--2----3----2----3--|--2----3----0-----0-----0--|
E--3---------3-------|--3------------------------|

GUITAR 1


GUITAR 2 

E--55555555-00000000-55555555-00000000-55555555--|
B--55555555-11111111-55555555-11111111-55555555--|
G--66666666-22222222-66666666-22222222-66666666--|
D------------------------------------------------|
A------------------------------------------------|
E------------------------------------------------|
                                       ........

GUITAR 1 (A LITTLE OFF)

E|-----------------------------------------------------------|
B|-----------------------------------------------------------|
G|-------5-7-9-9bv-9-7--------------7-9-7-5-----6/7v-9v-10v--|
D|-7v--7---------------10-8bv--8-10---------7bv--------------|
A|-----------------------------------------------------------|
E|-----------------------------------------------------------|

(can you say "continued"?)

E|----------------------------------------10-----10------------|
B|------10------10------10------10/13-13b----13b----13b-13-12--|
G|-12fb----12fb----12fb----12fb--------------------------------|
D|-------------------------------------------------------------|
A|-------------------------------------------------------------|
E|-------------------------------------------------------------|

E---------------------------------------------------------------------------|
B-12-11-9-11-9-7-9-7--------------------------------------------------------|
G--------------------9-7-5-7-5-4-5------------------------------------------|
D----------------------------------7-9-7-5-4-5-5-4-5------------------------|
A-----------------------------------------------------7-5-4-5-4-------------|
E---------------------------------------------------------------7-9-7-5-4-5v|

GUITAR 1 (DISTORTED)

E--------5------9-----------7----------5------------|
B----7--------------10----------8--------5----------|
G--7---7---7--9---9----9--7---7---7--6-----7-6-4----|
D------------------------------------------------7--|
A---------------------------------------------------| X4
E---------------------------------------------------|

GUITAR 1 (DISTORTED)

E--------5--------5-------3-------0--------2--|
B------7-7-----5--5-----3-3-----2--------3----|
G----7---7---6----6---4---4---2--------2------|
D--0-------0--------0-------0--------0--------|
A---------------------------------------------| X4
E---------------------------------------------|

GUITAR 3 (DISTORTION)

E-------------------------|
B-------------------------|
G--77777777---------------|
D--77777777-555-77777777--|
A--55555555-555-77777777--| X4
E-----------333-55555555--|

GUITAR 4 (DISTORTION)

E--22222222-000-00000000---|
B--33333333-222-33333333---|
G--22222222-222-00000000---|
D--00000000-222-00000000---|
A-----------000-22222222---| X4
E---------------33333333---|

***NOT SURE HOW IT IS PLAYED ON THE BOTTOM***

GUITAR 1

E-----------------------------------------------|
B-----------------------------------------------|
G--66666666-77777777-99999999-1111111111111111--|
D--XXXXXXXX-XXXXXXXX-XXXXXXXX--X-X-X-X-X-X-X-X--|
A--44444444-55555555-77777777--9-9-9-9-9-9-9-9--| X4
E-----------------------------------------------|

GUITAR 3 (DISTORTION)

E|-----------------------------------------------------------------------|
B|-----------------------------------------------------------------------|
G|77777777---------------------------------------------------------------|
D|77777777-77777777-55555555-77777777-99999999-77777777-55555555-77777777|x?
A|55555555-77777777-55555555-77777777-99999999-77777777-55555555-77777777| 
E|---------55555555-33333333-55555555-77777777-55555555-33333333-55555555|

GUITAR 4 (DISTORTION)

E|22222222-00000000-00000000-00000000-22222222-00000000-22222222-00000000|
B|33333333-22222222-33333333-22222222-33333333-22222222-33333333-22222222|
G|22222222-22222222-00000000-22222222-44444444-22222222-44444444-22222222|
D|00000000-22222222-00000000-22222222----------22222222----------22222222|x?
A|---------00000000-22222222-00000000----------00000000----------00000000|
E|------------------33333333---------------------------------------------|

GUITAR 1

E|-----------------------------------------------|
B|-----------------------------------------------|
G|--66666666-77777777-99999999-1111111111111111--|
D|--XXXXXXXX-XXXXXXXX-XXXXXXXX--X-X-X-X-X-X-X-X--|
A|--44444444-55555555-77777777--9-9-9-9-9-9-9-9--| X4
E|-----------------------------------------------|

GUITAR 2

E|--00000000-333-00000000--|
B|--33333333-333-33333333--|
G|--22222222-000-22222222--|
D|--00000000-000-22222222--|
A|-------------------------| X4
E|-------------------------|

GUITAR 3

E|-------------------------|
B|-------------------------|
G|--77777777---------------|
D|--77777777-555-77777777--|
A|--55555555-555-77777777--| X4
E|-----------333-55555555--|

GUITAR 4 (DISTORTION)

E|--22222222-000-00000000---|
B|--33333333-333-22222222---|
G|--22222222-000-22222222---|
D|--00000000-000-22222222---|
A|-----------222-00000000---| X4
E|-----------333------------|

GUITAR 1

E|------|
B|------|
G|--7~--|
D|--X~--|
A|--5~--|
E|------|

GUITAR 2

E|--2~--|
B|--3~--|
G|--2~--|
D|--0~--|
A|------|
E|------|

GUITAR 3

E|------|
B|------|
G|--7~--|
D|--7~--|
A|--5~--|
E|--5~--|

GUITAR 4

E|--0~--|
B|--3~--|
G|--2~--|
D|--0~--|
A|------|
E|------|

| .  palm mute note
| /  slide up
| \  slide down
| h  hammer-on
| p  pull-off
| ~  vibrato
| +  harmonic
| x  Mute note
=============================================================================

            
            
Suggest correction
Creating personal tab
Creating personal tab
You can edit any tab online and save it as your Personal.

You can edit, replace or remove any tab part or add personal notes – all changes will be seen only by you.

Personal tabs can be accessed anytime from any device, even offline.
Learn more »
comments
print report bad tab
15 comments total. Showing first comments.
+1 reply
kiefermatot 10,367 Sep 17, 2005 08:00 PM

I just thought more people would look at this one because it's by MCR and The Used. thanks for looking at my tab

+1 reply
kiefermatot 10,367 Sep 19, 2005 08:00 PM

correction - where i put the tuning, it should be EBGDAE, i typed it backwards:-O

+1 reply
itsnachocheese 10 Dec 20, 2005 02:31 AM

lol

guest
You may want to rate the tab now too:
select rating
Wanna post a correction for this tab? Suggest correction