Oops, an error
Loading. Please wait.

Under Pressure Tab

version 3
version 3

Whole song

Interactive

2,588 views 1 this week
3 commentsread comments
1 2 3 4 5
accurate
x 3
add to favorites
launch autoscroll
font size
0
reset
how to read this tab
guitar tuner
Autoscroll
slow
fast
+/-
esc
set tempo
stop
Help us to improve Ultimate-Guitar.com Take our survey!
×
Contributor
        Original Recording Details:
Song: Under Pressure
Artists: David Bowie & Freddie Mercury (Queen)
Album: (Unknown)
Release: (Unknown)
Queen Label: Hollywood
Bowie Label: Virgin (USA)
Format: Live (Duet)
	
	COver Recording Details
Song: Under Pressure
Artists: The Used & My Chemical Romance
Album: (Unknown)
Realese: (Unknown)
The Used Label: Reprise Records
My CHemical Romance Label: Reprise Reocords
Format: Live (Duet)

	The Used is:
Vocals: Bert McCracken
Guitars: Quinn Allman
Bass Guitars: Jeph Howard
Drums: Brandon Steinekert
	
	My Chemical Romance is:
Vocals: Gerard Way
Guitars: Ray Toro
Guitars: Frank Iero
Bass: Mikey Way
Drums: Bob Bryar
	
	The Used uses:
(Unknown)
	
	My Chemical Romance uses:
C&C Drums, Epiphone & Gibson Guitars, Fender Basses.

Standard Tuning:		Drop D Tuning:
e|--				e|--
b|--				b|--
g|--				g|--
d|--				d|--
a|--				a|--
E|--				D|--

Frank Iero (Guitar 1): Standard Tuning
Ray Toro (Guitar 2): Standard Tuning
Quinn Allman (Guitar 3): Drop D Tuning

GW = Gerard Way
BM = Bert McCracken

Symbols Used In This Song:
.     Palm Mute
~     Hold Note
X     Mute
=     Volume Swell
_/\_  Feedback
+     Tremolo (Alternate) Picking
v     Vibrato
()    Ghost Note EG. (8)
/     Slide Up
\     Slide Down
h     Hammer On
p     Pull Off
+     (Above a slide symbol) Shift Slide
_     Slowly Fade out of Palm Mutes


Tabbed By: Rhy Chermside
I'm constantly improving and correcting my tabs, so if you have any suggestions email me.
	BeatOnTheBrat91@hotmail.com

----------------------------------------------------------------------------------------------------------
------------------------------------------INTRO PT. I-----------------------------------------------------
----------------------------------------------------------------------------------------------------------


Guitar 1 (Rhythm) Intro:
e|----------------------|
b|----------------------|
g|--12~-x-11~-9/11-9-7~-|
d|------x---------------|
a|--10~-x-9~~-7/9--7-5~-|
E|----------------------|


----------------------------------------------------------------------------------------------------------
-----------------------------------------INTRO PT. II-----------------------------------------------------
----------------------------------------------------------------------------------------------------------


Guitar 1 Intro Pt. II: (CLEAN)
e|-----------------------------------------------------|
b|-----------------------------------------------------|
g|--11~-14~-11---9~--14~-9---7~--12~-7---6~------------|
d|-----------------------------------------------------|
a|--9~~-12~-9--x-7~--12~-7-x-5~--10~-5-x-4~------------|
E|-----------------------------------------------------|

Guitar 2 (Lead) Inrto Pt. II: (CLEAN)
e|------5~-----------5~----------3~---------0----------|
b|----------7-----5------5----3------3--------3-2-0-2--|
g|--7~-----------6-6---------4-4---------2~------------|
d|-----------------------------------------------------|
a|-----------------------------------------------------|
E|-----------------------------------------------------|

Guitar 1 Intro Pt. II: (CLEAN)
e|-----------------------------------------------------|
b|-----------------------------------------------------|
g|--11~-14~-11---9~--14~-9---7~--12~-7---6~------------|
d|-----------------------------------------------------|
a|--9~~-12~-9--x-7~--12~-7-x-5~--10~-5-x-4~------------|
E|-----------------------------------------------------|

Guitar 2 Inrto Pt. II: (CLEAN)
e|------5~-----------5~----------3~---------0----------|
b|----------7-----5------5----3------3--------3-2-0----|
g|--7~-----------6-6---------4-4---------2~---------2--|
d|-----------------------------------------------------|
a|-----------------------------------------------------|
E|-----------------------------------------------------|


----------------------------------------------------------------------------------------------------------
---------------------------------------------VERSE--------------------------------------------------------
----------------------------------------------------------------------------------------------------------


Guitar 1 Verse:
e|------------------------------------------------------------------------|
b|--3~----------------2~--------------------3~----------------------2~----|
g|--2~----------------2~--------------------0~----------------------2~----|_____
d|--0~----------------2~--------------------0~----------------------2~----|	|
a|--0~----------------0~--------------------------------------------0~----|	|
E|------------------------------------------3~----------------------------|	|
    D                 A                     G                       A		|____ Strum lightly
Guitar 3 (Rhythm) Verse:							|        - OR -
e|------------------------------------------------------------------------|	|     Adjust volume
b|------------------------------------------------------------------------|	|
g|--7~---------------(0)-------------------(0)---------------------(0)----|_____|
d|--7~----------------7---------------------5-----------------------7-----|
a|--5~----------------7---------------------5-----------------------7-----|
D|--5~----------------7---------------------5-----------------------7-----|

Guitar 2 Verse: (CLEAN)
e|--------5~-------------------5~-----------------3~-----------|
b|--------------7--------5---------5--------3---------3--------|
g|--7~----------------6-----6------------4-----4------------2~-|
d|-------------------------------------------------------------|
a|-------------------------------------------------------------|
E|-------------------------------------------------------------|
GW: Pressure!
BM: Pressure! Pushing down on me,  Pressing down on you, No man ask for

Guitar 1 Verse:
e|------------------------------------------------------------------------|
b|--3~----------------2~--------------------3~----------------------2~----|
g|--2~----------------2~--------------------0~----------------------2~----|_____
d|--0~----------------2~--------------------0~----------------------2~----|	|
a|--0~----------------0~--------------------------------------------0~----|	|
E|------------------------------------------3~----------------------------|	|
    D                 A                     G                       A		|____ Strum lightly
Guitar 3 (Rhythm) Verse:							|        - OR -
e|------------------------------------------------------------------------|	|     Adjust volume
b|------------------------------------------------------------------------|	|
g|--7~---------------(0)-------------------(0)---------------------(0)----|_____|
d|--7~----------------7---------------------5-----------------------7-----|
a|--5~----------------7---------------------5-----------------------7-----|
D|--5~----------------7---------------------5-----------------------7-----|

Guitar 2 Verse
e|--0----------------5~-------------------9~--5--------5~/--3~----|------------------|
b|----3-2-0----------------7--------5-----------------------------|--7-5-4-----------|
g|----------2--7~----------------7----(7)-----------6----------4--|--------7-6-4-----|
d|----------------------------------------------------------------|--------------7-5-|
a|----------------------------------------------------------------|------------------|
E|----------------------------------------------------------------|------------------|
GW:   We're under pressure! That brings a building down, Tears a family in two, Puts people on streets

Guitar 1 Verse:
e|--------------------------------------------------------------|----------|
b|--3~----------------2~--------------------3~------------------|----2~----|
g|--2~----------------2~--------------------0~------------------|----2~----|_____
d|--0~----------------2~--------------------0~------------------|----2~----|	 |
a|--0~----------------0~----------------------------------------|----0~----|	 |
E|------------------------------------------3~------------------|----------|	 |
    D                 A                     G                        A		 |____ Strum lightly
Guitar 3 Verse:							                 |        - OR -
e|--------------------------------------------------------------|----------|	 |     Adjust volume
b|--------------------------------------------------------------|----------|	 |
g|--7~---------------(0)-------------------(0)------------------|---(0)----|_____|
d|--7~----------------7---------------------5-------------------|----7-----|
a|--5~----------------7---------------------5-------------------|----7-----|
D|--5~----------------7---------------------5-------------------|----7-----|
								     ^_______________ Crank up the volume 
Guitar 2 Verse:									      for the last notes.
e|--------5~-------------------5~-----------------3~-----------------------|	      (Guitar 1 & 2)
b|--------------7--------5---------5--------3---------3--------------------|
g|--7~----------------6-----6------------4-----4------------2~-------2~----|
d|-------------------------------------------------------------------2~----|
a|-------------------------------------------------------------------0~----|
E|-------------------------------------------------------------------------|
                                                                     Am
GW: Bade dey ya!          Bade dey ya!            Bade dey ya! Bade dey ya! That's Okay!
BM:            Bade dey ya!          Bade dey ya! Bade dey ya! Bade dey ya! That's Okay!


----------------------------------------------------------------------------------------------------------
----------------------------------------------CHORUS------------------------------------------------------
----------------------------------------------------------------------------------------------------------


Guitar 1 Chorus:
e|--x----------------------0~--------------x-------------------------------0~--------------|
b|--3~---------------------3~--------------3~------------------------------3~--------------|
g|--0~---------------------2~--------------0~------------------------------2~--------------|
d|--0~---------------------0~--------------0~------------------------------0~--------------|
a|--2~---------------------0~--------------2~------------------------------0~--------------|
E|--3~-------------------------------------3~----------------------------------------------|
    G                      D               G                               D
Guitar 2 Chorus:
e|-----------------------------------------------------------------------------------------|
b|----6~--/7~--------------9~--/11~--------6~--/7~-------------------------9~--/11~--------|
g|----6~--/7~--------------9~--/11~--------6~--/7~-------------------------9~--/11~--------|
d|-----------------------------------------------------------------------------------------|
a|----4~--/5~--------------7~--/9~---------4~--/5~-------------------------7~--/9----------|
E|-----------------------------------------------------------------------------------------|
    
Guitar 3 Chorus:
e|-----------------------------------------------------------------------------------------|
b|-----------------------------------------------------------------------------------------|
g|--5~---------------------12~-------------5~------------------------------12~-------------|
d|--5~---------------------12~-------------5~------------------------------12~-------------|
a|--5~---------------------12~-------------5~------------------------------12~-------------|
D|--5~---------------------12~-------------5~------------------------------12~-------------|
GW:									     "Let me out!" 
BM: So tell me   what this world is about  Watching some good friends scream "Let me out!"

Guitar 1 Chorus:
e|--x----------------------0~--------------x------------------------------------------------|
b|--3~---------------------3~--------------3~------------------------------3~-----2~--------|
g|--0~---------------------2~--------------0~------------------------------0~-----2~--------|
d|--0~---------------------0~--------------0~------------------------------0~-----2~--------|
a|--2~---------------------0~--------------2~------------------------------2~-----0~--------|
E|--3~-------------------------------------3~------------------------------3~---------------|
    G                      D               G                               G           A
Guitar 2 Chorus:
e|-------------------------------------------------------------------------x----------------|
b|----6~--/7~--------------9~--/11~--------------------3-------------------3~-----2~--------|
g|----6~--/7~--------------9~--/11~------------------------2~--------------0~-----2~--------|
d|-------------------------------------------------0------------0----------0~-----2~--------|
a|----4~--/5~--------------7~--/9~-------------2--------------------0------2~-----0~--------|
E|-----------------------------------------3-------------------------------3~---------------|
                                           G          G/D                  G      A
Guitar 3 Chorus:
e|------------------------------------------------------------------------------------------|
b|------------------------------------------------------------------------------------------|
g|--5~---------------------12~-------------5~------------------------------12~----7~--------|
d|--5~---------------------12~-------------5~------------------------------12~----7~--------|
a|--5~---------------------12~-------------5~------------------------------12~----7~--------|
D|--5~---------------------12~-------------5~------------------------------12~----7~--------|
GW: Pray    tomarrow       takes me higher                       
BM:                                        Pressure on the people - People on the streets


----------------------------------------------------------------------------------------------------------
-------------------------------------------INTERLUDE------------------------------------------------------
----------------------------------------------------------------------------------------------------------


Lyrics:
GW: Bada da la
BM:

Guitar 2 Interlude: (Clean)
e|-------------------------------------|
b|---------------------=-=-=-=-=-=-=-=-|
g|--11/12-11-9~----9/7-7-7-7-7-7-7-7-7-|
d|-------------------------------------|
a|--9-/10-9--7~----7/5-5-5-5-5-5-5-5-5-|
E|-------------------------------------|

Guitar 1 Interlude:
e|-------------------------------------|
b|---------------------=-=-=-=-=-=-=-=-|
g|---------------------7-7-7-7-7-7-7-7-|
d|-------------------------------------|
a|---------------------5-5-5-5-5-5-5-5-|
E|-------------------------------------|
GW:            Okay!
BM:


----------------------------------------------------------------------------------------------------------
-------------------------------------------VERSE PT. II---------------------------------------------------
----------------------------------------------------------------------------------------------------------


Guitar 1 Verse II:
e|-----------------------------------------------------|
b|--3~---------------------2~--------------------------|
g|--2~---------------------2~--------------------------|______
d|--0~---------------------2~--------------------------|      |
a|--0~---------------------0~--------------------------|      |
E|-----------------------------------------------------|      |
    D                      A                 	              |____ Strumlightly
Guitar 3 Verse II:				              |        - OR -
e|-----------------------------------------------------|      |     Adjust volume
b|-----------------------------------------------------|      |
g|--7~--------------------(0)--------------------------|______|
d|--7~---------------------7---------------------------|
a|--5~---------------------7---------------------------|
D|--5~---------------------7---------------------------|

Guitar 2 Verse II:
e|------------5~--------------------9~----5------------|
b|-------------------7---------------------------------|
g|--7~---------------------6--------------------6------|
d|-----------------------------------------------------|
a|-----------------------------------------------------|
E|-----------------------------------------------------|
GW:  Chippin' around - Kick my brains 'round the floor
BM: 

Guitar 1 Verse II:
e|--x------------------------------------------------|
b|--3~---------------------2~------------------------|
g|--0~---------------------2~------------------------|______
d|--0~---------------------2~------------------------|      |
a|--2~---------------------0~------------------------|      |
E|--3------------------------------------------------|      |
    G                      A               	            |____ Strumlightly
Guitar 3 Verse II:	               	                    |        - OR -
e|---------------------------------------------------|      |     Adjust volume
b|---------------------------------------------------|      |
g|-(0)--------------------(0)------------------------|______|
d|--5~---------------------7~------------------------|
a|--5~---------------------7~------------------------|
D|--5~---------------------7~------------------------|

Guitar 2 Verse II:
e|----------7------3~-----------------0--------------|
b|---------------------------------------3--2--0-----|
g|--4-------------------4~------2~----------------2--|
d|---------------------------------------------------|
a|---------------------------------------------------|
E|---------------------------------------------------|
GW: These are the days - It never rains but it pours!
BM:

Guitar 1 Verse:
e|------------------------------------------------------------------------|
b|--3~----------------2~--------------------3~----------------------2~----|
g|--2~----------------2~--------------------0~----------------------2~----|_____
d|--0~----------------2~--------------------0~----------------------2~----|     |
a|--0~----------------0~--------------------------------------------0~----|     |
E|------------------------------------------3~----------------------------|     |
    D                 A                     G                       A	        |____ Strum lightly
Guitar 3 Verse:							                |        - OR -
e|------------------------------------------------------------------------|     |     Adjust volume
b|------------------------------------------------------------------------|	|
g|--7~---------------(0)-------------------(0)---------------------(0)----|_____|
d|--7~----------------7---------------------5-----------------------7-----|
a|--5~----------------7---------------------5-----------------------7-----|
D|--5~----------------7---------------------5-----------------------7-----|
								      
Guitar 2 Verse:									      
e|--------5~-------------------5~-----------------3~------------0---------|		      
b|--------------7--------5---------5--------3---------3-----------3-2-0---|
g|--7~----------------6-----6------------4-----4------------2~----------2-|
d|------------------------------------------------------------------------|
a|------------------------------------------------------------------------|
E|------------------------------------------------------------------------|
GW: Bade dey ya!          Bade dey ya!   Bade dey ya_ow! Bade dey yo_!
BM: Bade dey ya!          Bade da bo bo!  

Guitar 1 Verse:
e|------------------------------------------------------------------------|
b|--3~----------------2~--------------------3~----------------------2~----|
g|--2~----------------2~--------------------0~----------------------2~----|_____
d|--0~----------------2~--------------------0~----------------------2~----|     |
a|--0~----------------0~--------------------------------------------0~----|     |
E|------------------------------------------3~----------------------------|     |
    D                 A                     G                       A	        |____ Strum lightly
Guitar 3 Verse:							                |        - OR -
e|------------------------------------------------------------------------|     |     Adjust volume
b|------------------------------------------------------------------------|	|
g|--7~---------------(0)-------------------(0)---------------------(0)----|_____|
d|--7~----------------7---------------------5-----------------------7-----|
a|--5~----------------7---------------------5-----------------------7-----|
D|--5~----------------7---------------------5-----------------------7-----|
								      
Guitar 2 Verse:									      
e|--------5~-------------------5~-----------------3~----------------------|		      
b|--------------7--------5---------5--------3---------3-------------------|
g|--7~----------------6-----6------------4-----4------------2~------2~----|
d|------------------------------------------------------------------2~----|
a|------------------------------------------------------------------0~----|
E|------------------------------------------------------------------------|
                                                                    Am
GW: People on the streets! Bada de ya_ay! Bada de ya de ya de ya de ya_ow!
BM: People on the streets! Bada de ya_ay! Bada de ya de ya de ya de ya!


----------------------------------------------------------------------------------------------------------
-------------------------------------------CHORUS---------------------------------------------------------
----------------------------------------------------------------------------------------------------------


Guitar 1 Chorus:
e|--x----------------------0~--------------x-------------------------------0~--------------|
b|--3~---------------------3~--------------3~------------------------------3~--------------|
g|--0~---------------------2~--------------0~------------------------------2~--------------|
d|--0~---------------------0~--------------0~------------------------------0~--------------|
a|--2~---------------------0~--------------2~------------------------------0~--------------|
E|--3~-------------------------------------3~----------------------------------------------|
    G                      D               G                               D
Guitar 2 Chorus:
e|-----------------------------------------------------------------------------------------|
b|----6~--/7~--------------9~--/11~--------6~--/7~-------------------------9~--/11~--------|
g|----6~--/7~--------------9~--/11~--------6~--/7~-------------------------9~--/11~--------|
d|-----------------------------------------------------------------------------------------|
a|----4~--/5~--------------7~--/9~---------4~--/5~-------------------------7~--/9----------|
E|-----------------------------------------------------------------------------------------|
    
Guitar 3 Chorus:
e|-----------------------------------------------------------------------------------------|
b|-----------------------------------------------------------------------------------------|
g|--5~---------------------12~-------------5~------------------------------12~-------------|
d|--5~---------------------12~-------------5~------------------------------12~-------------|
a|--5~---------------------12~-------------5~------------------------------12~-------------|
D|--5~---------------------12~-------------5~------------------------------12~-------------|
GW:									                   "Let me out!" 
BM: It's the terror of knowing what this world is about  Watching some good friends scream "Let me out!"

Guitar 1 Chorus:
e|--x----------------------0~--------------x------------------------------------------------|
b|--3~---------------------3~--------------3~------------------------------3~-----2~--------|
g|--0~---------------------2~--------------0~------------------------------0~-----2~--------|
d|--0~---------------------0~--------------0~------------------------------0~-----2~--------|
a|--2~---------------------0~--------------2~------------------------------2~-----0~--------|
E|--3~-------------------------------------3~------------------------------3~---------------|
    G                      D               G                               G      A
Guitar 2 Chorus:
e|-------------------------------------------------------------------------x----------------|
b|----6~--/7~--------------9~--/11~--------------------3-------------------3~-----2~--------|
g|----6~--/7~--------------9~--/11~------------------------2~--------------0~-----2~--------|
d|-------------------------------------------------0------------0----------0~-----2~--------|
a|----4~--/5~--------------7~--/9~-------------2--------------------0------2~-----0~--------|
E|-----------------------------------------3-------------------------------3~---------------|
                                           G          G/D                  G      A
Guitar 3 Chorus:
e|------------------------------------------------------------------------------------------|
b|------------------------------------------------------------------------------------------|
g|--5~---------------------12~-------------5~------------------------------12~----7~--------|
d|--5~---------------------12~-------------5~------------------------------12~----7~--------|
a|--5~---------------------12~-------------5~------------------------------12~----7~--------|
D|--5~---------------------12~-------------5~------------------------------12~----7~--------|
GW: Pray    tomarrow       takes me higher Bada da _________ y ey yay ey ya __________ y!
BM:                                        Bade da _________ y ey yay ey ya __________ y!


----------------------------------------------------------------------------------------------------------
----------------------------------------------BRIDGE------------------------------------------------------
----------------------------------------------------------------------------------------------------------


Lyrics:
GW: Turned away from it all like a blind man
BM: Turned away from it all like a blind ma ___ n

Guitar 1 Bridge:
e|--------------------------------_/\_-|
b|--------------------------------_/\_-|
g|--------------------------------_/\_-|
d|--------------------------------_/\_-|
a|--------------------------------_/\_-|
E|--------------------------------_/\_-|
GW: Sat on a fence, but it don't work
BM: Sat on a fence, but it don't work

Guitar 1:
e|----------------------------------------------------------|
b|----------------------------------------------------------|
g|----------------------------------------------------------|
d|----------------------------------------------------------|
a|--5--5--5--5--5--5--5--5-----7--7--7--7--7--7--7--7-------|
E|--3--3--3--3--3--3--3--3-----5--5--5--5--5--5--5--5-------|
PM. .  .  .  .  .  .  .  .     .  .  .  .  .  .  .  . 

Guitar 2:
e|----------------------------------------------------------|
b|----------------------------------------------------------|
g|----------------------------------------------------------|
d|----------------------------------------------------------|
a|--5--5--5--5--5--5--5--5-----7--7--7--7--7--7--7--7-------|
E|--3--3--3--3--3--3--3--3-----5--5--5--5--5--5--5--5-------|
PM. .  .  .  .  .  .  .  .     .  .  .  .  .  .  .  . 

Guitar 3:
e|----------------------------------------------------------|
b|----------------------------------------------------------|
g|----------------------------------------------------------|
d|----------------------------------------------------------|
a|--5--5--5--5--5--5--5--5-----7--7--7--7--7--7--7--7-------|
D|--5--5--5--5--5--5--5--5-----7--7--7--7--7--7--7--7-------|
PM. .  .  .  .  .  .  .  .     .  .  .  .  .  .  .  . 
GW: Keep comin' up with love, but it's so slashed and torn!
BM: Keep comin' up with love, but it's so slashed and torn!


----------------------------------------------------------------------------------------------------------
---------------------------------------------SOLO---------------------------------------------------------
----------------------------------------------------------------------------------------------------------


Guitar 1 Rhythm to Solo: 
e|----------------------------------------------------------------------------|
b|----------------------------------------------------------------------------|
g|----------------------------------------------------------------------------|
d|--7~------------------8~----------------------------5~-------------------3~-|
a|--7~------------------8~----------------------------5~-------------------3~-|
E|--5~------------------6~----------------------------3~-------------------1~-|

Guitar 2 Solo:
e|----------------------------------------------------------------------------|
b|---------------------------+---+----+---------------------------------------|
g|--------------5/7-7h9-10v-(10)-10v-(10)--9-(9)-7-----------------7-8-7\5----|
d|--5h7v--7-(7)------------------------------------10-8v--8-(8)-10---------7v-|
a|----------------------------------------------------------------------------|
E|----------------------------------------------------------------------------|

Guitar 3 Rhythm to Solo:
e|----------------------------------------------------------------------------|
b|----------------------------------------------------------------------------|
g|----------------------------------------------------------------------------|
d|--7~------------------8~----------------------------5~-------------------3~-|
a|--7~------------------8~----------------------------5~-------------------3~-|
D|--7~------------------8~----------------------------5~-------------------3~-|
GW:
BM: Why!?   Why!?       Why!?

Guitar 1 Rhythm To solo:
e|-----------------------------------------------------------------------------|
b|-----------------------------------------------------------------------------|
g|-----------------------------------------------------------------------------|
d|--8~--------------------------7~-------------------------9~------------------|
a|--8~--------------------------7~-------------------------9~------------------|
E|--6~--------------------------5~-------------------------7~------------------|

Guitar 2 Solo:
e|----------------------------------------------------------10-----10----------|
b|----------------------------------10-----10-----10h12-13^----13^----13^-(13)-|
g|----6-(6)-/7v-7-(7)-/9v-9/10--12^----12^----12^------------------------------|
d|--7--------------------------------------------------------------------------|
a|-----------------------------------------------------------------------------|
E|-----------------------------------------------------------------------------|

Guitar 3 Rhythm to Solo:
e|-----------------------------------------------------------------------------|
b|-----------------------------------------------------------------------------|
g|-----------------------------------------------------------------------------|
d|--8~--------------------------7~-------------------------9~------------------|
a|--8~--------------------------7~-------------------------9~------------------|
E|--8~--------------------------7~-------------------------9~------------------|
GW:                                    Love!         Love!       Love!    Ha!                 
BM:                             Love!         Love!        Love!    

Guitar 1 Rhythm to Solo:
e|--------------------------------------------------------------------------------|
b|--------------------------------------------------------------------------------|
g|--------------------------------------------------------------------------------|
d|--------------------------------------------------------------------------------|
a|--7----7----7----7----7----7----7----7----7----7----7----7----7----7----7----7--|
E|--5----5----5----5----5----5----5----5----5----5----5----5----5----5----5----5--|
PM. .    .    .    .    .    .    .    .    .    .    .    .    .    .    .    .

Guitar 2 Solo:
e|--------------------------------------------------------------------------------|
b|--12p11p9-11p9/7-9p7------------------------------------------------------------|
g|---------------------9p7/5-7p5/4-(5)------+-+-----------------------------------|
d|-------------------------------------7h9p7\5\4-5-(5)-4h5------------------------|
a|---------------------------------------------------------7p5p4-5p4------+-+-----|
E|-------------------------------------------------------------------7h9p7\5\4-5v-|

Guitar 3 Rhythm to Solo:
e|--------------------------------------------------------------------------------|
b|--------------------------------------------------------------------------------|
g|--------------------------------------------------------------------------------|
d|--------------------------------_----_----_----_----_----_----_----_----_----_--|
a|--7----7----7----7----7----7----7----7----7----7----7----7----7----7----7----7--|
D|--7----7----7----7----7----7----7----7----7----7----7----7----7----7----7----7--|
PM. .    .    .    .    .    .    .    .    .    .    .    .    .    .    .    .
GW:
BM:      Insanity    lies    under     pressure     we're         cracking


----------------------------------------------------------------------------------------------------------
-------------------------------------------BRIDGE PT. II--------------------------------------------------
----------------------------------------------------------------------------------------------------------


Guitar 1 Bridge Pt. II:
e|-------------------------------------------------------|
b|-------------------------------------------------------|
g|--x------------7~--------------------------------------|
d|--x------------7~-------------------------------5~--7~-|
a|--x------------5~-------------------------------5~--7~-|
E|--x---------------------------------------------3~--5~-|

Guitar 2 Bridge Pt. II:
e|-------------------------------------------------------|
b|-------------------------------------------------------|
g|---------------7~--------------------------------------|
d|---------------7~-------------------------------5~--7~-|
a|---------------5~-------------------------------5~--7~-|
E|------------------------------------------------3~--5~-|

Guitar 3 Bridge Pt. II:
e|-------------------------------------------------------|
b|-------------------------------------------------------|
g|---------------7~--------------------------------------|
d|---------------7~-------------------------------5~--7~-|
a|---------------5~-------------------------------5~--7~-|
D|---------------5~-------------------------------5~--7~-|
GW: Can't we give ourselves one more chance!?
BM:

Guitar 1 Bridge Pt. II:
e|-------------------------------------------------------|
b|-------------------------------------------------------|
g|---------------7~--------------------------------------|
d|---------------7~-------------------------------5~--7~-|
a|---------------5~-------------------------------5~--7~-|
E|------------------------------------------------3~--5~-|

Guitar 2 Bridge Pt. II:
e|-------------------------------------------------------|
b|-------------------------------------------------------|
g|---------------7~--------------------------------------|
d|---------------7~-------------------------------5~--7~-|
a|---------------5~-------------------------------5~--7~-|
E|------------------------------------------------3~--5~-|

Guitar 3 Bridge Pt. II:
e|-------------------------------------------------------|
b|-------------------------------------------------------|
g|---------------7~--------------------------------------|
d|---------------7~-------------------------------5~--7~-|
a|---------------5~-------------------------------5~--7~-|
D|---------------5~-------------------------------5~--7~-|
GW: Why can't we give love that one more chance!?
BM:

Guitar 1 Bridge Pt. II:
e|-----------------------------------------------------------|
b|-----------------------------------------------------------|
g|---------------7~------------------------------------------|
d|---------------7~--------------------5~----------7~--------|
a|---------------5~--------------------5~----------7~--------|
E|-------------------------------------3~----------5~--------|

Guitar 2 Bridge Pt. II:
e|-----------------------------------------------------------|
b|-----------------------------------------------------------|
g|---------------7~------------------------------------------|
d|---------------7~--------------------5~----------7~--------|
a|---------------5~--------------------5~----------7~--------|
E|-------------------------------------3~----------5~--------|

Guitar 3 Bridge Pt. II:
e|-----------------------------------------------------------|
b|-----------------------------------------------------------|
g|---------------7~------------------------------------------|
d|---------------7~--------------------5~----------7~--------|
a|---------------5~--------------------5~----------7~--------|
D|---------------5~--------------------5~----------7~--------|
GW: Why can't we give love! Give love! Give love ! Give Love!
BM:

Guitar 1 Bridge Pt. II:
e|----------------------------------------------|
b|----------------------------------------------|
g|--7~--------------------7~--------------------|
d|--7~--------------------7~--------------------|
a|--5~--------------------4~--------------------|
E|----------------------------------------------|

Guitar 2 Bridge Pt. II:
e|----------------------------------------------|
b|----------------------------------------------|
g|--7~--------------------7~--------------------|
d|--7~--------------------7~--------------------|
a|--5~--------------------4~--------------------|
E|----------------------------------------------|

Guitar 3 Bridge Pt. II:
e|----------------------------------------------|
b|----------------------------------------------|
g|--7~--------------------7~--------------------|
d|--7~--------------------7~--------------------|
a|--5~--------------------4~--------------------|
D|--5~--------------------4~--------------------|
GW: Give love! Give love! Give love! Give Love!
BM:


----------------------------------------------------------------------------------------------------------
-------------------------------------------BRIDGE PT. III-------------------------------------------------
----------------------------------------------------------------------------------------------------------

Guitar 1 Bridge Pt. III:
e|-------------------------------------------|
b|-------------------------------------------|
g|---------4~-------------2~------------7~---|
d|---------4~-------------2~------------7~---|
a|---------2~-------------0~------------5~---|
E|-------------------------------------------|
                          Am
Guitar 2 Brifge Pt. III:
e|-------------------------------------------|
b|-------------------------------------------|
g|---------4~-------------2~------------7~---|
d|---------4~-------------2~------------7~---|
a|---------2~-------------0~------------5~---|
E|-------------------------------------------|
                          Am
Gutar 3 Bridge Pt. III:
e|-------------------------------------------|
b|-------------------------------------------|
g|---------4~---------------------------7~---|
d|---------4~-------------7~------------7~---|
a|---------2~-------------7~------------5~---|
D|---------2--------------7~------------5~---|
GW:
BM: 'Cause love's such an old fashioned word

Guitar 1 Bridge Pt. III:
e|-------------------------------------|
b|-------------------------------------|
g|-----------7~-----------4~-----------|
d|-----------7~-----------4~-----------|
a|-----------4~-----------2~-----------|
E|-------------------------------------|

Guitar 2 Bridge Pt. III:
e|-------------------------------------|
b|-------------------------------------|
g|-----------7~-----------4~-----------|
d|-----------7~-----------4~-----------|
a|-----------4~-----------2~-----------|
E|-------------------------------------|


Guitar 3 Bridge Pt. III:
e|-------------------------------------|
b|-------------------------------------|
g|-----------7~-----------4~-----------|
d|-----------7~-----------4~-----------|
a|-----------4~-----------2~-----------|
D|-----------4~-----------2~-----------|
GW: 
BM: And love dares you to care for the

Guitar 1 Bridge Pt. III:
e|----------------------------------|
b|----------------------------------|
g|--2~------------7~----------7~----|
d|--2~------------7~----------7~----|
a|--0~------------5~----------4~----|
E|----------------------------------|
    Am
Guitar 2 Bridge Pt. III:
e|----------------------------------|
b|----------------------------------|
g|--2~------------7~----------7~----|
d|--2~------------7~----------7~----|
a|--0~------------5~----------4~----|
E|----------------------------------|
    Am
Guitar 3 Bridge Pt. III:
e|----------------------------------|
b|----------------------------------|
g|----------------7~----------7~----|
d|--7~------------7~----------7~----|
a|--7~------------5~----------4~----|
D|--7~------------5~----------4~----|
GW:               Edge of the night
BM: People on the edge of the night

Guitar 1 Bridge Pt. III:
e|-------------------------------------------|
b|-------------------------------------------|
g|-----------4~-----------2~-----------------|
d|-----------4~-----------2~-----------------|
a|-----------2~-----------0~-----------------|
E|-------------------------------------------|
                          Am
Guitar 2 Bridge Pt. III:
e|-------------------------------------------|
b|-------------------------------------------|
g|-----------4~-----------2~-----------------|
d|-----------4~-----------2~-----------------|
a|-----------2~-----------0~-----------------|
E|-------------------------------------------|
                          Am
Guitar 3 Bridge Pt. III:
e|-------------------------------------------|
b|-------------------------------------------|
g|-----------4~------------------------------|
d|-----------4~-----------7~-----------------|
a|-----------2~-----------7~-----------------|
D|------------------------7~-----------------|
GW: And love dares you to change our ways of
BM: And love dares you to change our ways of


----------------------------------------------------------------------------------------------------------
-------------------------------------------BRIDGE PT. III-------------------------------------------------
----------------------------------------------------------------------------------------------------------


Guitar 1 Outro:
e|--x-------0~---------------x~-----------0~--------|
b|--3~------3~---------------3~-----------3~--------|
g|--0~------2~---------------0~-----------2~--------|
d|--0~------0~---------------0~-----------0~--------|
a|--2~------0~---------------2~-----------0~--------|
E|--3~-----------------------3~---------------------|
    G       D                G            D
Guitar 2 Outro:
e|--x-------0~---------------x~-----------0~--------|
b|--3~------3~---------------3~-----------3~--------|
g|--0~------2~---------------0~-----------2~--------|
d|--0~------0~---------------0~-----------0~--------|
a|--2~------0~---------------2~-----------0~--------|
E|--3~-----------------------3~---------------------|
    G       D                G            D
Guitar 3 Outro:
e|--------------------------------------------------|
b|--------------------------------------------------|
g|--5~-----12~---------------5~----------12~--------|
d|--5~-----12~---------------5~----------12~--------|
a|--5~-----12~---------------5~----------12~--------|
D|--5~-----12~---------------5~----------12~--------|
GW: Caring about ourselves - This is our last dance
BM: Caring about ourselves - This is our last dance

Guitar 1 Outro:
e|--x-----------0~---------|
b|--3~----------3~---------|
g|--0~----------2~---------|
d|--0~----------0~---------|
a|--2~----------0~---------|
E|--3~---------------------|
    G           D
Guitar 2 Outro:
e|--x-----------0~---------|
b|--3~----------3~---------|
g|--0~----------2~---------|
d|--0~----------0~---------|
a|--2~----------0~---------|
E|--3~---------------------|
    G           D
Guitar 1 Outro:
e|-------------------------|
b|-------------------------|
g|--5~----------12~--------|
d|--5~----------12~--------|
a|--5~----------12~--------|
E|--5~----------12~--------|
GW: This is our last dance
BM: This is our last dance

Guitar 1 Outro:
e|--x~-------------x----------------|
b|--3~-------------3~-----2~--------|
g|--0~-------------0~-----2~--------|
d|--0~-------------0~-----2~--------|
a|--2~-------------2~-----0~--------|
E|--3~-------------3~---------------|
    G              G      A                        
Guitar 2 Chorus:
e|-----------------x----------------|
b|--------3--------3~-----2~--------|
g|----------2~-----0~-----2~--------|
d|------0-----0----0~-----2~--------|
a|----2---------0--2~-----0~--------|
E|--3--------------3~---------------|
    G              G      A
Guitar 3 Chorus:
e|----------------------------------|
b|----------------------------------|
g|--5~-------------12~----7~--------|
d|--5~-------------12~----7~--------|
a|--5~-------------12~----7~--------|
D|--5~-------------12~----7~--------|
GW: This is ourselves
BM: This is ourselves

Lyrics:
GW: 
BM: Under pressure

GW: 
BM: Under pressure

GW:
BM: Under pressure
comments
We did not receive enough feedback on this tab! Please rate:
print report bad tab
1 2 3 4 5
3 comments total.
0 reply
BesserPunk 73 wrote on February 14 2006, 09:10 am

e|-------------------------------------------------------------------|
b|--3~-----------2~--------------------3~----------------------2~----|
g|--2~-----------2~--------------------0~----------------------2~----|
d|--0~-----------2~--------------------0~----------------------2~----|
a|--0~-----------0~--------------------------------------------0~----|
E|-------------------------------------3~----------------------------|
D A G D

The last chord is a "D" but shows the tabs of an "A"-chord...
which one do you have to play!?

0 reply
Guitarmaster12 108 wrote on October 21 2006, 10:28 am

the drummer is bob bryar

0 reply
French Frhy 259 wrote on November 5 2006, 07:40 pm

oops ya i knew that... thats from my last tab... i think it was fall out boy thanks for catchin that man

I want to post or [tab]
guest
You may want to rate the tab now too:
select rating
Please do not post tabs as comments. Select "correction" instead!