Oops, an error
Loading. Please wait.

Vampire Money Bass Tab

version 2
version 2

Whole song

Interactive

2,875 views 12 this week
2 commentsread comments
1 2 3 4 5
x 9
add to favorites
launch autoscroll
font size
0
reset
guitar tuner
Autoscroll
slow
fast
+/-
esc
set tempo
stop
Help us to improve Ultimate-Guitar.com Take our survey!
×
Author
Difficulty
intermediate
Not 100% sure about these tabs due to the accents but it is still pretty accurate. Enjoy!

Check out my bass cover of this video!

http://www.youtube.com/watch?v=4i2V3uV5Ac8

Check out my channel for more bass covers!

http://www.youtube.com/user/chrisistheazn?feature=mhee


Intro

   Bass comes in around 0:15

G|-----------------------------------------------------------------------|
D|-----------------------------------------------------------------------|
A|---------------------------------------------------------4-5-6---------|
E|-7-7-7-7-7-7-7-7-7-7-7-7-7-6-5-7---7-7-7-7-7-7-7-7-7-7-0-------7-------|

G|-----------------------------------------------------------------------|
D|-----------------------------------------------------------------------|
A|---------------------------------------------------------4-5-6-6-------|
E|---7-7-7-7-7-7-7-7-7-7-7-7-6-5-7---7-7-7-7-7-7-7-7-7-7-0---------------|

Verse 1

G|-----------------------------------------------------------------------|
D|-----------------------------------------------------------------------|
A|---------------------------------------------------------4-5-6-7-------|
E|-7-7-7-7-7-7-7-7-7-7-7-7-7-6-5-7-7-7-7-7-7-7-7-7-7-7-7-0---------------|

G|-----------------------------------------------------------------------|
D|-----------------------------------------------------------------------|
A|-7-7-7-7-7-7-7-7-7-7-7-7-7-6-5-----------------------------------------|
E|-------------------------------7-7-7-7-7-7-7-7-7-7-7-7-7-7-7-7-7-------|

G|-----------------------------------------------------------------------|
D|-----------------------------------------------------------------------|
A|-9-9-9-9-9-9-9-8-7-7-7-7-7-7-7-7-------------------9-9-9-9-9-9-9-------|
E|---------------------------------7-7-7-7-7-7-7-7-7---------------------|

Chorus 1

G|-----------------------------------------------------------------------|
D|-----------------------------------------------------------------------|
A|---------------------------------------------------------4-5-6-7-------|
E|-7-7-7-7-7-7-7-7-7-7-7-7-7-6-5-7---7-7-7-7-7-7-7-7-7-7-0---------------|

G|-----------------------------------------------------------------------|
D|-----------------------------------------------------------------------|
A|---7-7-7-7-7-7-7-7-7-7-7-7-6-5-----------------------------------------|
E|-------------------------------7---7-7-7-7-7-7-7-7-7-7-7-7-7-7-7-------|

G|-----------------------------------------------------------------------|
D|-----------------------------------------------------------------------|
A|-9-9-9-9-9-9-9-8-7-7-7-7-7-7-7-7-6-6-6-6-6-6-6-6-----------------------|
E|-------------------------------------------------4-4-4-4-2-2-2-2-------|

G|-----------------------------------------------------------------------|
D|-----------------------------------------------------------------------|
A|-7-7-7-7-7-7-7-7-9-9-9-9-9-9-9-9---------------------------------------|
E|-----------------------------------------------------------------------|

After-Chorus

G|-----------------------------------------------------------------------|
D|-----------------------------------------------------------------------|
A|---------------------------------------------------------4-5-6---------| x2
E|-7-7-7-7-7-7-7-7-7-7-7-7-7-6-5-7-6-7-7-7-7-7-7-7-7-7-7-0-------0-------|

Verse 2

   Same as Verse 1

Chorus 2

   Same as Chorus 1

Bridge

G|-----------------------------------------------------------------------|
D|-----------------------------------------------------------------------|
A|---------------------------------7-----8---9---10-11-12-13-------------|
E|-7-----8-----9-----10-----11-------------------------------------------|

G|-----------------------------------------------------------------------|
D|-----------------------------------------------------------------------|
A|---------------------------------------------------------4-5-6---------|
E|-7-7-7-7-7-7-7-7-7-7-7-7-7-6-5-7---7-7-7-7-7-7-7-7-7-7-0-------7-------|

G|-----------------------------------------------------------------------|
D|-----------------------------------------------------------------------|
A|---------------------------------------------------------4-5-6-7-------|
E|---7-7-7-7-7-7-7-7-7-7-7-7-6-5-7---7-7-7-7-7-7-7-7-7-7-0---------------|

G|-----------------------------------------------------------------------|
D|-----------------------------------------------------------------------|
A|---7-7-7-7-7-7-7-7-7-7-7-7-5-6-7---7-7-7-7-7-7-7-7-7-7-7-7-6-5---------|
E|---------------------------------------------------------------7-------|

G|-----------------------------------------------------------------------|
D|-----------------------------------------------------------------------|
A|-------------------------------------------------------------7-8-------|
E|-7-7-7-7-7-7-7-7-7-7-7-7-7-5-6-7---7-7-7-7-7-7-7-7-7-7-7-7-7-----------|

G|-----------------------------------------------------------------------|
D|-----------------------------------------------------------------------|
A|-9-9-9-9-9-9-9-9-9-9-9-9-9-9-9-9-7-7-7-7-7-7-7-7-6-6-6-6-4-4-4-4-------|
E|-----------------------------------------------------------------------|

G|-----------------------------------------------------------------------|
D|-----------------------------------------------------------------------|
A|---------------------------------------------------------4-5-6---------|
E|-7-7-7-7-7-7-7-7-7-7-7-7-7-6-5-7---7-7-7-7-7-7-7-7-7-7-0-------0-------|

Verse 3

   Same as Verse 1

Chorus 3

   Same as Chorus 1

Outro

G|-----------------------------------------------------------------------|
D|-----------------------------------------------------------------------|
A|-----------------------------------------------------------------------| x2
E|-7-7-7-7-7-7-7-7-7-7-7-7-7-7-7-7-7-7-7-7-7-7-7-7-7-7-7-7-7-7-7-7-------|

G|-----------------------------------------------------------------------|
D|-----------------------------------------------------------------------|
A|-----------------------------------------------------------------------|
E|-7-------7-------7-------7---------------------------------------------|

For the rest of the outro he just keeps hitting the B (7th fret on the E string) .
Suggest correction
comments
print report bad tab
2 comments total.
0 reply
Music2Go 117 May 25, 2013 08:42 PM

Sounds good! Thanks for the tab.

0 reply
MCRSOS 10 Jan 16, 2015 11:47 AM

Just played this and it's perfect! Thank you so much!

guest
You may want to rate the tab now too:
select rating
Wanna post a correction for this tab? Suggest correction