Oops, an error
Loading. Please wait.

Vampire Money Tab

version 3
version 3

Whole song

Interactive

4,674 views 6 this week
no commentswrite comment
1 2 3 4 5
accurate
x 6
add to favorites
launch autoscroll
font size
0
reset
how to read this tab
guitar tuner
Tab Pro tools
  • play this tab
  • loop segment
  • change instrument
  • show fretboard
  • metronome
×
Best way to learn
"Vampire Money"
Autoscroll
slow
fast
+/-
esc
set tempo
stop
Difficulty
intermediate
-----------------------------------------------------------------------------
                             VAMPIRE MONEY - My Chemical Romance
-----------------------------------------------------------------------------
Tabbed by: SynysterNinja13 (Mikey D)
Email: ratterratchet@msn.com

This is my first tab so go easy on me.

Tuning: 
e|-----------------------------------------------------------|
B|-----------------------------------------------------------|
G|-------------------------------------------7-7-7-7-7-7-----|
D|--9--9-9-9-9-9-9-9/-7--7-7-/-9-9-9-9-9-9-9-7-7-7-7-7-7-----|
A|--9--9-9-9-9-9-9-9/-7--7-7-/-9-9-9-9-9-9-9-5-5-5-5-5-5-----|
E|--7--7-7-7-7-7-7-7/-5--5-5-/-7-7-7-7-7-7-7-----------------|

Verse

e|-----------------------------------------------------|
B|-----------------------------------------------------|
G|---------------------9~----------11--9-------7-------|
D|---9~-------9--------9~----9-----11--9---9---7-------|
A|---9~-------9--------7~----9-----9---7---9---5-------|
E|---7~-------7--------------7-------------7-----------|

Chorus

e|------------------------------------------------------------------|
B|------------------------------------------------------------------|
G|--------------------------------------------9--9-9-9-9-9-9-9-/-11-|
D|--9--9-9-9-9-9-9-9/-7--7-7-/-9-9-9-9-9-9-9--9--9-9-9-9-9-9-9-/-11-|
A|--9--9-9-9-9-9-9-9/-7--7-7-/-9-9-9-9-9-9-9--7--7-7-7-7-7-7-7-/-9--|
E|--7--7-7-7-7-7-7-7/-5--5-5-/-7-7-7-7-7-7-7------------------------|

e|------------------------------------------------------------|
B|------------------------------------------------------------|
G|-11-11-11-11-11-11-9-9-9-9-9-9-8-8-8-8-8-8--11--11--11-/-13-|
D|-11-11-11-11-11-11-9-9-9-9-9-9-8-8-8-8-8-8--11--11--11-/-13-|
A|-9--9--9--9--9--9--7-7-7-7-7-7-6-6-6-6-6-6--9---9---9--/-11-|
E|------------------------------------------------------------|

e|-------------------------------------|
B|-------------------------------------|
G|--9-9-9-9-9-9-9-11-11-11-11-11-11----|
D|--9-9-9-9-9-9-9-11-11-11-11-11-11----|
A|--7-7-7-7-7-7-7-9--9--9--9--9--9-----|
E|-------------------------------------|

Pre-Verse

e|----------------------------------------------------------------------|
B|----------------------------------------------------------------------|
G|-------------------------------------------7-7-7-7-7-7----------------|
D|--9--9-9-9-9-9-9-9/-7--7-7-/-9-9-9-9-9-9-9-7-7-7-7-7-7----------------|  x2
A|--9--9-9-9-9-9-9-9/-7--7-7-/-9-9-9-9-9-9-9-5-5-5-5-5-5----------------|
E|--7--7-7-7-7-7-7-7/-5--5-5-/-7-7-7-7-7-7-7----------------------------|

Verse 2

e|-----------------------------------------------------------------------|
B|-----------------------------------------------------------------------|
G|-------------------------------------------9-9-9-9-9-9-9---------------|
D|--9--9-9-9-9-9-9-9/-7--7-7-/-9-9-9-9-9-9-9-9-9-9-9-9-9-9-9-9-9-9-9-9-9-|
A|--9--9-9-9-9-9-9-9/-7--7-7-/-9-9-9-9-9-9-9-7-7-7-7-7-7-7-9-9-9-9-9-9-9-|
E|--7--7-7-7-7-7-7-7/-5--5-5-/-7-7-7-7-7-7-7---------------7-7-7-7-7-7-7-|

e|---------------------------------------------------------|
B|---------------------------------------------------------|
G|11-11-11-11-11-11-9-9-9-9-9-9-----------------7-7-7-7-7--|
D|11-11-11-11-11-11-9-9-9-9-9-9--9-9-9-9-9-9-9--7-7-7-7-7--|
A|9--9--9--9--9--9--7-7-7-7-7-7--9-9-9-9-9-9-9--5-5-5-5-5--|
E|-------------------------------7-7-7-7-7-7-7-------------|

Chorus 2

e|------------------------------------------------------------------|
B|------------------------------------------------------------------|
G|--------------------------------------------9--9-9-9-9-9-9-9-/-11-|
D|--9--9-9-9-9-9-9-9/-7--7-7-/-9-9-9-9-9-9-9--9--9-9-9-9-9-9-9-/-11-|
A|--9--9-9-9-9-9-9-9/-7--7-7-/-9-9-9-9-9-9-9--7--7-7-7-7-7-7-7-/-9--|
E|--7--7-7-7-7-7-7-7/-5--5-5-/-7-7-7-7-7-7-7------------------------|

e|------------------------------------------------------------|
B|------------------------------------------------------------|
G|-11-11-11-11-11-11-9-9-9-9-9-9-8-8-8-8-8-8--11--11--11-/-13-|
D|-11-11-11-11-11-11-9-9-9-9-9-9-8-8-8-8-8-8--11--11--11-/-13-|
A|-9--9--9--9--9--9--7-7-7-7-7-7-6-6-6-6-6-6--9---9---9--/-11-|
E|------------------------------------------------------------|

e|-------------------------------------|
B|-------------------------------------|
G|--9-9-9-9-9-9-9-11-11-11-11-11-11----|
D|--9-9-9-9-9-9-9-11-11-11-11-11-11----|
A|--7-7-7-7-7-7-7-9--9--9--9--9--9-----|
E|-------------------------------------|

Pre Solo

e|-----------------------------------------|
B|-----------------------------------------|
G|-----------------------------------------|
D|---9--10--11--12--13--14--15--16--17--19-|
A|---9--10--11--12--13--14--15--16--17--19-|
E|---7--8---9---10--11--12--13--14--15--17-|


Sorry guys. I Haven't figured out the solo yet.

Nothing is played in Verse 3 except drums and Gerard singing.

Chorus 3


e|------------------------------------------------------------------|
B|------------------------------------------------------------------|
G|--------------------------------------------9--9-9-9-9-9-9-9-/-11-|
D|--9--9-9-9-9-9-9-9/-7--7-7-/-9-9-9-9-9-9-9--9--9-9-9-9-9-9-9-/-11-|
A|--9--9-9-9-9-9-9-9/-7--7-7-/-9-9-9-9-9-9-9--7--7-7-7-7-7-7-7-/-9--|
E|--7--7-7-7-7-7-7-7/-5--5-5-/-7-7-7-7-7-7-7------------------------|

e|------------------------------------------------------------|
B|------------------------------------------------------------|
G|-11-11-11-11-11-11-9-9-9-9-9-9-8-8-8-8-8-8--11--11--11-/-13-|
D|-11-11-11-11-11-11-9-9-9-9-9-9-8-8-8-8-8-8--11--11--11-/-13-|
A|-9--9--9--9--9--9--7-7-7-7-7-7-6-6-6-6-6-6--9---9---9--/-11-|
E|------------------------------------------------------------|

e|-------------------------------------|
B|-------------------------------------|
G|--9-9-9-9-9-9-9-11-11-11-11-11-11----|
D|--9-9-9-9-9-9-9-11-11-11-11-11-11----|
A|--7-7-7-7-7-7-7-9--9--9--9--9--9-----|
E|-------------------------------------|

Outro


e|---------------------------------------------------------|
B|---------------------------------------------------------|
G|-------------------------------------------7-7-7-7-7-7---|
D|--9--9-9-9-9-9-9-9/-7--7-7-/-9-9-9-9-9-9-9-7-7-7-7-7-7---| 
A|--9--9-9-9-9-9-9-9/-7--7-7-/-9-9-9-9-9-9-9-5-5-5-5-5-5---|
E|--7--7-7-7-7-7-7-7/-5--5-5-/-7-7-7-7-7-7-7---------------|

e|---------------------------------------------|
B|---------------------------------------------|
G|---------------------------------------------|
D|--9----9----9----9~-----------------------9--|
A|--9----9----9----9~----(pick-scrapes)-----9--|
E|--7----7----7----7~-----------------------7--|

End

************************************

| /   slide up
| \   slide down
| h   hammer-on
| p   pull-off
| ~   vibrato
| +   harmonic
| x   Mute note
| b   Bend
| pb  Pre-bend
| br  Bend release
| pbr Pre-bend release
| brb Bend release bend

************************************
comments
print report bad tab
I want to post or [tab]
guest
You may want to rate the tab now too:
select rating
Please do not post tabs as comments. Select "correction" instead!