Oops, an error
Loading. Please wait.

Vampires Will Never Hurt You Tab

version 1
version 1

Whole song

Interactive

13,294 views 24 this week
1 commentread comment
1 2 3 4 5
accurate
x 3
add to favorites
launch autoscroll
font size
0
reset
how to read this tab
guitar tuner
Autoscroll
slow
fast
+/-
esc
set tempo
stop
Help us to improve Ultimate-Guitar.com Take our survey!
×
Author
My Chemical Romance - Vampires Will Never Hurt You (Guitar One)

Guitar 1 Part One 
e|----------------------------------------------------------------------| 
B|----------------------------------------------------------------------| 
G|9--9--11\\9--4--5--8--5-\\-4-----9--9--11\\9--9--11/12--4--5--8--5\\4-| 
D|----------------------------------------------------------------------| 
A|7--7---9-\\7--2--3--6--3-\\-2-----7--7---9\\7--7---9/10--2--3--6--3\\2| 
E|----------------------------------------------------------------------| 

Part One X 3 

Guitar 1 Part Two
e|---------------------------------------------| 
B|---------------------------------------------| 
G|9--9---11\\9--9--9---11\\9--4--5--8--555-555-| 
D|-----------------------------------555-555---| 
A|7--7---9-\\7--7--7---9-\\7--2--3--6--333-222-| 
E|---------------------------------------------| 

Part One X 2 
Part Two X 2

Guitar 1 plays this the last time
e|----------------------------------------------------------| 
B|----------------------------------------------------------| 
G|--9--11---9----11--12--14--17--16--14--12--12--14--17-----| 
D|----------------------------------------------------------| 
A|--7---9---7----9---10--12--15--14--12--10--10--12--15-----| 
E|----------------------------------------------------------|

Chorus X 2 

Then: 
e|-------------------------| 
B|-------------------------| 
G|--4--44444444444444------| 
D|--4--44444444444444------| 
A|--2--22222222222222------|X2 
E|-------------------------| 

e|---------------------------------------------------------| 
B|---------------------------------------------------------| 
G|---------------------------------------------------------| Guitar 1 X2 
D|----9--7--5-5--2-----------------------------------------| 
A|----9--7--5-5--2-----------------------------------------|  
E|----7--5--3-2--0-----------------------------------------| 

Then:
e|---------------------------------------------------------| 
B|---------------------------------------------------------| 
G|--4---6---7--9--12--11--12--14--16---19------------------| 
D|---------------------------------------------------------| 
A|--2---4---5--7--10---9--10--12--14---17------------------| 
E|---------------------------------------------------------| 

Guitar 1 

Chorus

End on 
e|---|
B|---|
G|-4-| 
D|-4-| 
A|-2-|
E|---|



(Guitar Two)

Guitar 2 same part 
e|----------------------------------------------------------| 
B|----------------------------------------------------------| 
G|9--7---------5-----8--------------9--7-------------4----8-| 
D|----------------------------------------------------------| 
A|7--5---------3-----6--------------7--5-------------2----6-| 
E|----------------------------------------------------------| 

Part One X 3 

Guitar 2 part two 
e|----------------------------------------------------------| 
B|----------------------------------------------------------| 
G|9--7---------5-----8--------------9--7-------------4----8-| 
D|----------------------------------------------------------| 
A|7--5---------3-----6--------------7--5-------------2----6-| 
E|----------------------------------------------------------| 

Fill 
e|---------------------------------------------------------| 
B|---------------------------------------------------------| 
G|--9-----9-------9----------------------------------------| 
D|--9-----9-------9----------------------------------------| 
A|--7-----7-------7----------------------------------------| 
E|---------------------------------------------------------| 

Part One X 2 
Part Two X 2 

Chorus (PM when necessary) 
e|-----------------------------------------------| 
B|-----------------------------------------------| 
G|------99999--44444--33333333-----4--5--8--4--9-| 
D|------99999--44444--33333333-------------------| 
A|------77777--22222--11111111-----2--3--6--2--7-| 
E|-----------------------------------------------| 

Part One X 2 
Part Two X 2 

Chorus X 2 

e|---------------------------------------------------------| 
B|---------------------------------------------------------| 
G|---------------------------------------------------------|  
D|----9--7--5-5--2-----------------------------------------| Guitar 2 X4 
A|----9--7--5-5--2-----------------------------------------| 
E|----7--5--3-2--0-----------------------------------------| 

Chorus 

e|------------------------------------------| 
B|------------------------------------------| 
G|---------11-11--11-10-10--10-9-9--9-------| 
D|--9-9--9----------------------------------| At the end (can you...) 
A|------------------------------------------| don't play the last G-9s. 
E|------------------------------------------| 

End on
G|-4-| 
D|-4-| 
A|-2-|
Suggest correction new What's this?
You can suggest a correction to this tab. Community and Mods will review your correction and vote to approve or reject it.
comments
We did not receive enough feedback on this tab! Please rate:
print report bad tab
1 2 3 4 5
1 comment total.
+1 reply
Gibson_SG_uzr55 4,028 wrote on March 23 2007, 09:15 pm

It could be a bit better.

guest
You may want to rate the tab now too:
select rating
Please do not post tabs as comments. Select "correction" instead!