Oops, an error
Loading. Please wait.

Welcome To The Black Parade Bass Tab

version 1
version 1
114,954 views 342 this week
49 commentsread comments
1 2 3 4 5
excellent!
x 115
add to favorites
launch autoscroll
font size
0
reset
guitar tuner
Autoscroll
slow
fast
+/-
esc
set tempo
stop
Help us to improve Ultimate-Guitar.com Take our survey!
×
Contributor
AdamV 2,033
My Chemical Romance – Welcome To The Black Parade, from album The Black Parade

Standard Tuning EADG

[Intro]

0.38

G|-------------------------------------------|
D|-12/-17---16---14-----------------------12-| X2
A|--------------------17---15---14---12------|
E|-------------------------------------------|

G|-------------------------------|
D|-------------------------------| X2
A|-------------5---3---2---0---5-|
E|-3---2---0---------------------|

G|------------------------------------|
D|------------------------------------|
A|-------------5---3---2---0---5------|
E|-3---2---0-----------------------3~-|


[Verse]

G|---------------------------------------------------------------|
D|---------------------------------------------------------------|
A|----------------------------55555555-333333333333-555555555555-|
E|-33333333-22222222-00000000------------------------------------|

G|-----------------------------------------------------------------------|
D|-----------------------------------------------------------------------| X2
A|----------------------------3333333333333333----------5555555555555555-|
E|-33333333-22222222-11111111------------------33333333------------------|


[Chorus]

G|---------------------------------------------------------------|
D|---------------------------------------------------------------| X2
A|----------------------------55555555-333333333333-555555555555-|
E|-33333333-22222222-00000000------------------------------------|


[Verse]

G|-----------------------------------------------------------------------|
D|-----------------------------------------------------------------------| X2
A|----------------------------3333333333333333----------5555555555555555-|
E|-33333333-22222222-11111111------------------33333333------------------|


[Chorus]

G|---------------------------------------------------------------|
D|---------------------------------------------------------------|
A|----------------------------55555555-333333333333-555555555555-|
E|-33333333-22222222-00000000------------------------------------|

G|---------------------------------------------------------------------|
D|---------------------------------------------------------------------| 
A|----------------------------55555555-333333333333-555555555555-5---3-|
E|-33333333-22222222-00000000------------------------------------------|


[Bridge]

G|-------------------|
D|-------------------| X2
A|-22222222----------|
E|----------00000000-|

G|--------------------------|
D|--------------------------|
A|-3333333333333333-6-5-3-1-|
E|--------------------------|

G|-----------------|
D|-----------------| X2
A|-------5-3---3-5-|
E|-3-2-0-----3-----|

G|-----------------------------------|
D|-----------------------------------|
A|---------5-------------------------|
E|-5-4-2-0---5-000000000000000000000-|


[Chorus]

G|-------------------------------------------------------------------|
D|-------------------------------------------------------------------|
A|-------------------------------------55555555555555-77777777777777-|
E|-55555555-44444444-22222222-00000000-------------------------------|

G|------------------------------------------------------------|
D|------------------------------------------------------------|
A|-------------------------------------55555555555555---------|
E|-55555555-44444444-22222222-00000000----------------0-0-0-0-|


[Outro]

G|--------------------------------------------|
D|--------------------------------------------|
A|---------5~--------------------5~-----------|
E|-5-4-2-0------0000-0-0-5-4-2-0------0-0-0-0-|

G|----|
D|----|
A|----|
E|-5~-|
 


************************************

/ = Slide Up
~ = Let ring

************************************
comments
print report bad tab
49 comments total. Showing first comments.
0 reply
LewisMasonx 2,859 wrote on November 1 2006, 02:50 pm

Thankyouthankyou for tabbing this! :D It's awesome! A little part in the verse sounds kinda off, but it's still excellent! Good job!

+1 reply
Mosh-Ibbo 23 wrote on November 1 2006, 03:42 pm

Like he said THANK YOU for tabbing this song!!!! And its a r8 gud tab aswell THANK YOU!!!well done!!!

0 reply
im2young4herpes 11 wrote on November 2 2006, 04:33 am

really nice. do u think u could tab mama?

I want to post or [tab]
guest
You may want to rate the tab now too:
select rating
Please do not post tabs as comments. Select "correction" instead!