Oops, an error
Loading. Please wait.

Welcome To The Black Parade Tab

version 1
191,434 views 407 this week
24 commentsread comments
1 2 3 4 5
accurate
x 52
add to favorites
launch autoscroll
font size
0
reset
how to read this tab
guitar tuner
Tab Pro tools
  • play this tab
  • loop segment
  • change instrument
  • show fretboard
  • metronome
Autoscroll
slow
fast
+/-
esc
set tempo
stop
Contributor
Song- Welcome to the Black Parade
Artist- My Chemical Romance
Album- The Black Parade

***updated 01-15-07

Intro- (piano)
e|--15~---14--19--12~---10--15--8~---7--12--5~---10~--|
B|----------------------------------------------------|
G|----------------------------------------------------|
D|----------------------------------------------------|
A|----------------------------------------------------|
E|----------------------------------------------------|

(When I was a young boy...)

Guitar 1 (Ray)
e|-----------------------------------------------------|
B|---------------10~------10--12--12/17--15--12--12~---|
G|--12~--11--12-------12-------------------------------|
D|-----------------------------------------------------|
A|-----------------------------------------------------|
E|-----------------------------------------------------|

e|---------------------------------------------------------|
B|--12/17--15--15--12--12~-----12/13--12--12---------------|
G|--------------------------------------------12--12/14~---|
D|---------------------------------------------------------|
A|---------------------------------------------------------|
E|---------------------------------------------------------|

comments
print report bad tab
24 comments total. Showing first comments.
0 reply
f1f2 wrote on September 8 2006, 07:43 am

its played in a higher octave (the intro)

0 reply
f1f2 wrote on September 8 2006, 07:45 am

and i'm on the work for the full tab - from that mp3 on mcr's myspace (and i play it over and over again) until i get the job done..,

0 reply
SpeedRacerGoGo wrote on September 8 2006, 05:25 pm

this is the VMA version, they play it at a higher octave on the studio version.

I want to post or [tab]
guest
You may want to rate the tab now too:
select rating
Please do not post tabs as comments. Select "correction" instead!