Oops, an error
Loading. Please wait.

Welcome To The Black Parade Tab

version 1
version 1

Whole song

29,119 views 57 this week
26 commentsread comments
1 2 3 4 5
x 6
add to favorites
launch autoscroll
font size
0
reset
how to read this tab
guitar tuner
backing track
0:00
0:00
×
Best way to learn
"Welcome To The Black Parade"
Autoscroll
slow
fast
+/-
esc
set tempo
stop
Author
e|--------------|
B|--------------|
G|--------------| (x4)
D|--x--x-x-x-x--|
A|--x--x-x-x-x--|
E|--x--x-x-x-x--|

e|---------------------------------------------|
B|---------------------------------------------|
G|---------------------------------------------|
D|--5--5-5-5-5--5--5-5-5-5--5--5-5-5-5---------|
A|--5--5-5-5-5--5--5-5-5-5--5--5-5-5-5---------|
E|--3--3-3-3-3--3--3-3-3-3--3--3-3-3-3--3-2-0--|

e|---------------------------------------------|
B|---------------------------------------------|
G|---------------------------------------------|
D|--2--2-2-2-2--2--2-2-2-2--2--2-2-2-2---------|
A|--2--2-2-2-2--2--2-2-2-2--2--2-2-2-2---------|
E|--0--0-0-0-0--0--0-0-0-0--0--0-0-0-0--0-2-3--|

e|--------------------------------------------------|
B|--------------------------------------------------|
G|--6--6-6-6-6--6--6-6-6-6--6--6-6-6-6--6--6-6-6-6--|
D|--6--6-6-6-6--6--6-6-6-6--6--6-6-6-6--6--6-6-6-6--|
A|--4--4-4-4-4--4--4-4-4-4--4--4-4-4-4--4--4-4-4-4--|
E|--------------------------------------------------|

e|--------------------------------------------------|
B|--------------------------------------------------|
G|--5--5-5-5-5--5--5-5-5-5--5--5-5-5-5--5--5-5-5-5--|
D|--5--5-5-5-5--5--5-5-5-5--5--5-5-5-5--5--5-5-5-5--|
A|--3--3-3-3-3--3--3-3-3-3--3--3-3-3-3--3--3-3-3-3--|
E|--------------------------------------------------|

e|------------------------------------------------------------|
B|------------------------------------------------------------|
G|------------------------------------------------------------|
D|------------------------------------------------------------|
A|-------------------------------4--4--4--4--4-5-4-3----5--3--|
E|--3--3--3-5-7-5--3-0--0--2--0-------------------------------|

e|---------------------------------------------------------------------|
B|---------------------------------------------------------------------|
G|---------------------------------------------------------------------|
D|------------------------------------------------------------------5--|
A|-------------------------------4--4--4--4--4-5-4-333-555-666-888--5--|
E|--3--3--3-5-7-5--3-0--0--2--0-------------------------------------3--|


************************************

| x  Dead note

************************************
Suggest correction
comments
print report bad tab
26 comments total. Showing first comments.
0 reply
f1f2 774 Sep 01, 2006 01:34 AM

its my first time to hear a different tuning..,,,.,.,.

0 reply
Mcr14 7,513 Sep 01, 2006 01:40 AM

what the **** are u on u knob, there is no such note as h. so therefore it is wrong, change it now

0 reply
yogurt_overdose 153 Sep 01, 2006 02:46 AM

In some cultures/countries the note 'b' is also known as an 'h', so basically, you're an ignorant dick

guest
You may want to rate the tab now too:
select rating
Wanna post a correction for this tab? Suggest correction