Oops, an error
Loading. Please wait.

Welcome To The Black Parade Bass Tab

version 2
12,136 views 27 this week
4 commentsread comments
1 2 3 4 5
x 3
add to favorites
launch autoscroll
font size
0
reset
guitar tuner
Autoscroll
slow
fast
+/-
esc
set tempo
stop
Help us to improve Ultimate-Guitar.com Take our survey!
×
|-12----16-------12------9------------|
|----16----14-12----10-9---7-12-------| X2
|-------------------------------------|
|-------------------------------------|

|-------------------------------|
|-------------------------------| X2
|-------------5---3---2---0---5-|
|-3---2---0---------------------|

|-----------------------------------|
|-----------------------------------|
|-------------5---3---2---0---5-----|
|-3---2---0-----------------------3-|

|---------------------------------------------------------------|
|---------------------------------------------------------------|
|----------------------------55555555-333333333333-555555555555-|
|-33333333-22222222-00000000------------------------------------|

|-----------------------------------------------------------------------|
|-----------------------------------------------------------------------| X2
|----------------------------3333333333333333----------5555555555555555-|
|-33333333-22222222-11111111------------------33333333------------------|

|---------------------------------------------------------------|
|---------------------------------------------------------------| X2
|----------------------------55555555-333333333333-555555555555-|
|-33333333-22222222-00000000------------------------------------|

|-----------------------------------------------------------------------|
|-----------------------------------------------------------------------| X2
|----------------------------3333333333333333----------5555555555555555-|
|-33333333-22222222-11111111------------------33333333------------------|

|---------------------------------------------------------------|
|---------------------------------------------------------------|
|----------------------------55555555-333333333333-555555555555-|
|-33333333-22222222-00000000------------------------------------|

|---------------------------------------------------------------------|
|---------------------------------------------------------------------| 
|----------------------------55555555-333333333333-555555555555-5---3-|
|-33333333-22222222-00000000------------------------------------------|


|-------------------|
|-------------------| X2
|-22222222----------|
|----------00000000-|

|--------------------------|
|--------------------------|
|-3333333333333333-6-5-3-2-|
|--------------------------|

|-----------------|
|-----------------| X2
|-------5-3---3-5-|
|-3-2-0-----3-----|

|-----------------------------------|
|-----------------------------------|
|---------5-------------------------|
|-5-4-2-0---5-000000000000000000000-|


|-------------------------------------------------------------------|
|-------------------------------------------------------------------| X2
|-------------------------------------55555555555555----------------|
|-55555555-44444444-22222222-00000000----------------00000000000000-|

|----------------|
|----------------| X2
|---------5------|
|-5-4-2-0------0-|

|----|
|----|
|----|
|-5~-|

add me po dragonwarrior_10@yahoo.com if u have comments po ^_^ ty 
Em0 r0cks!!
Suggest correction
Give kudos to tab author, rate the tab!
1 2 3 4 5
comments
print report bad tab
4 comments total. Showing first comments.
0 reply
spencer Cr 507 Dec 04, 2006 06:36 PM

pretty good job, for the real bass tab, check out the guitar world magazine holiday issue 2006. that tab is 100%

0 reply
punk_isntemo12 40 Feb 09, 2007 09:58 PM

good tab. but the intro is done by a piano not the bass. the bass comes in after the guitars.

0 reply
0Saoirse0 10 Jul 24, 2008 06:10 PM

intro's great, but it's not supposed to be on bass, oh well, still sounds great!

guest
You may want to rate the tab now too:
select rating
Wanna post a correction for this tab? Suggest correction