Oops, an error
Loading. Please wait.

Welcome To The Black Parade Tab

version 2
version 2

Whole song

13,812 views 15 this week
28 commentsread comments
1 2 3 4 5
accurate
x 14
add to favorites
launch autoscroll
font size
0
reset
how to read this tab
guitar tuner
Autoscroll
slow
fast
+/-
esc
set tempo
stop
Help us to improve Ultimate-Guitar.com Take our survey!
×
hey this is my first tab and i think its close but use this as a guideline to figure out 
to play it as you might have seen i left out the solo please help me on that! cuz i'm 
13! =]
intro

e|--15-----------------14----------15----------------|
B|-----18--21--15--12------------------12--15--------|
G|-------------------------15--18--------------------|>x5
D|---------------------------------------------------|
A|---------------------------------------------------|
E|---------------------------------------------------|

e|-----------------------|
B|--------8^-------------|
G|-/9^-7^---------7^-12^-|
D|----------9^-7^--------|         X5
A|-----------------------|
E|-----------------------|


e|-----------------------------------------------|
B|-----------------------------------------------|
G|--11---14---20---22---18---11----14---18---11--|
D|--x-X6-x-X8-x-X4-x-X3-x-X4-x-X10-x-X6-x-X2-x-X2|  X1
A|--9----12---18---20---15---9-----12---15---9---|
E|-----------------------------------------------|

verse:

e|------------------------------|
B|------------------------------|
G|--55555------77777555555555555|
D|--5555555555577777555555555555|
A|--3333355555555555333333333333|
E|-------333333-----------------|
PM  .................. .. .. ..
                                       verse X2
e|--------------------------5*--5*|
B|--------------------------------|
G|--55555-----7777733x55x77---5*--|
D|--555555555577777xxxxxxxx-------|
A|--33333555555555511x33x55-------|
E|-------33333--------------------|
PM  .. .... .... ..


CHORUS:
e|--------------------------------------------|
B|--------------------------------------------|
G|--555555----------77777---------------------|       chorus X2
D|--5555555555522222777775555555555/7777777777|
A|--3333335555522222555555555555555/7777777777|
E|--------3333300000-----3333333333/5555555555|

bridge:
e|--------------------------|
B|--------------------------|
G|33x3x3x33x3x3-------------|
D|33x3x3x33x3x333x3x3x33x3x3|      X2
A|55x5x5x55x5x533x3x3x33x3x3|
E|-------------55x5x5x55x5x5|


e|-------------------|
B|-------------------|
G|-------------------|
D|5555555555-7~5~5~2~|       X1
A|5555555555-7~5~5~2~|
E|3333333333-5~3~2~0~|

e|--------|
B|--------|
G|--------|
D|7~5~5~2~|         X5
A|7~5~5~2~|
E|5~3~2~0~|

e|-----------------|
B|-----------------|
G|-----------------|
D|55555555555555555|       X1
A|55555555555555555|
E|33333333333333333|
PM.. .. ..

REPEAT CHORUS:
e|--------------------------------------------|
B|--------------------------------------------|
G|--555555----------77777---------------------|       chorus X2-3
D|--5555555555522222777775555555555/7777777777|
A|--3333335555522222555555555555555/7777777777|
E|--------3333300000-----3333333333/5555555555|

OUTRO:
e|--------|
B|--------|
G|--------|
D|7~5~5~2~|         untill song fades out
A|7~5~5~2~|
E|5~3~2~0~|


key:
bend=^
harmonics=*
slide=/
let ring=~
Suggest correction
What's this?
You can suggest a correction to this tab. Community and Mods will review your correction and vote to approve or reject it.
comments
print report bad tab
28 comments total. Showing first comments.
0 reply
FidoFletch 105 wrote on September 9 2006, 07:48 am

Well, i cant rate this tab yet for now n im sorry.. What tuning should be applied??

0 reply
earl_j13 66 wrote on September 9 2006, 12:24 pm

well its quite ovbious that it is in standard tuning
e| i mean this is on every single line come on!
B| but sorry this tab is all wrong
G|
D|
A|
E|

0 reply
SpeedRacerGoGo 40 wrote on September 9 2006, 03:58 pm

the intro is a little off

guest
You may want to rate the tab now too:
select rating
Please do not post tabs as comments. Select "correction" instead!