Oops, an error
Loading. Please wait.

Welcome To The Black Parade Bass Tab

version 3
4,766 views 1 this week
no commentswrite comment
1 2 3 4 5
x 4
add to favorites
launch autoscroll
font size
0
reset
guitar tuner
Autoscroll
slow
fast
+/-
esc
set tempo
stop
Help us to improve Ultimate-Guitar.com Take our survey!
×
Author
Song     :Welcome To The Black Parade (Bass)
Artist   :My Chemical Romance
Tabbed By:Chirantan
E-Mail   :chirantan.pal@gmail.com


G||-------|-------|-------|-------|-------|-------|-------|-------|-------|
D||-------|-------|-------|-------|-------|-------|-------|-------|-------|
A||-------|-------|-------|-------|-------|-------|-------|-------|-------|
E||-------|-------|-------|-------|-------|-------|-------|-------|-------|


|-------|-------|-------|-------|-------|-------|-------|-------|-------|-------|
|-------|-------|-------|-------|-------|-------|-------|-------|-------|-------|
|-------|-------|-------|-------|-------|-------|-------|-------|-------|-------|
|-------|-------|-------|-------|-------|-------|-------|-------|-------|-------|

                                                                       
|-------|-------|-------|-------|----------------------|--------------------|
|-------|-------|-------|-------|----------------------|--------------------|
|-------|-------|-------|-------|---------------5------|--10----------------|
|-------|-------|-------|-------|----------------------|--------------------|

                                                                            
|-------------------|-------------------|-------------------|-------------------|
|-------------------|-------------------|-------------------|-------------------|
|--9----------------|--7----------------|--5----------------|--3----------------|
|-------------------|-------------------|-------------------|-------------------|

                                                         
|-------------------|-------------------|-------------------|
|-------------------|-------------------|-------------------|
|--2----------------|-------------------|--5----------------|
|-------------------|--5----------------|-------------------|

                                                          
|--------------------|-------------------|-------------------|
|--------------------|-------------------|-------------------|
|--10----------------|--9----------------|--7----------------|
|--------------------|-------------------|-------------------|


|-------------------|-------------------|-------------------|-------------------|
|-------------------|-------------------|-------------------|-------------------|
|--5----------------|--3----------------|--2----------------|-------------------|
|-------------------|-------------------|-------------------|--5----------------|

                                                          
|-------------------|--------------------|-------------------|
|-------------------|--------------------|-------------------|
|--5----------------|--10----------------|--9----------------|
|-------------------|--------------------|-------------------|

                                                                            
|-------------------|-------------------|-------------------|-------------------|
|-------------------|-------------------|-------------------|-------------------|
|--7----------------|--5----------------|--3----------------|--2----------------|
|-------------------|-------------------|-------------------|-------------------|

                                                          
|-------------------|-------------------|--------------------|
|-------------------|-------------------|--------------------|
|-------------------|--5----------------|--10----------------|
|--5----------------|-------------------|--------------------|

                                                                            
|-------------------|-------------------|-------------------|-------------------|
|-------------------|-------------------|-------------------|-------------------|
|--9----------------|--7----------------|--5----------------|--3----------------|
|-------------------|-------------------|-------------------|-------------------|

                                                         
|-------------------|-------------------|-------------------|
|-------------------|-------------------|-------------------|
|--2----------------|-------------------|--5----------------|
|-------------------|--5----------------|-------------------|

                                                         
|--------------------|-------------------|-------------------|
|--------------------|-------------------|-------------------|
|--10----------------|--9----------------|--7----------------|
|--------------------|-------------------|-------------------|

                                                                            
|-------------------|-------------------|-------------------|-------------------|
|-------------------|-------------------|-------------------|-------------------|
|--5----------------|--3----------------|--2----------------|-------------------|
|-------------------|-------------------|-------------------|--5----------------|

                                                                     
|-------------------|--------------------|-------------------|-----------|
|-------------------|--------------------|-------------------|-----------|
|--5----------------|--10----------------|-------------------|-----------|
|-------------------|--------------------|-------------------|-----------|

                                                         
|-------------------|--------------------------|--------------------------|
|-------------------|--------------------------|--------------------------|
|-------------------|--------------------------|--------------------------|
|-------------------|--3--3--3--3--3--3--3--2--|--2--2--2--2--2--2--2--0--|

                                      
|--------------------------|--------------------------|
|--------------------------|--------------------------|
|-----------------------5--|--5--5--5--5--5--5--5--3--|
|--0--0--0--0--0--0--0-----|--------------------------|

                                      
|--------------------------|--------------------------|
|--------------------------|--------------------------|
|--3--3--3--3--3--3--3--3--|--3--3--3--3--3--3--3--3--|
|--------------------------|--------------------------|

                                      
|--------------------------|--------------------------|
|--------------------------|--------------------------|
|--2--2--2--2--2--2--2--2--|--0--0--0--0--0--0--0--0--|
|--------------------------|--------------------------|

                                      
|--------------------------|--------------------------|
|--------------------------|--------------------------|
|--------------------------|--------------------------|
|--3--3--3--3--3--3--3--3--|--2--2--2--2--2--2--2--2--|

                                      
|--------------------------|--------------------------|
|--------------------------|--------------------------|
|--------------------------|--3--3--3--3--3--3--3--3--|
|--1--1--1--1--1--1--1--1--|--------------------------|

                                      
|--------------------------|--------------------------|
|--------------------------|--------------------------|
|--3--3--3--3--3--3--3--3--|--------------------------|
|--------------------------|--3--3--3--3--3--3--3--3--|

                                      
|--------------------------|--------------------------|
|--------------------------|--------------------------|
|--5--5--5--5--5--5--5--5--|--5--5--5--5--5--5--5--5--|
|--------------------------|--------------------------|

                                      
|--------------------------|--------------------------|
|--------------------------|--------------------------|
|--------------------------|--------------------------|
|--3--3--3--3--3--3--3--3--|--2--2--2--2--2--2--2--2--|

                                      
|--------------------------|--------------------------|
|--------------------------|--------------------------|
|--------------------------|--3--3--3--3--3--3--3--3--|
|--1--1--1--1--1--1--1--1--|--------------------------|

                                      
|--------------------------|--------------------------|
|--------------------------|--------------------------|
|--3--3--3--3--3--3--3--3--|--------------------------|
|--------------------------|--3--3--3--3--3--3--3--3--|

                                      
|--------------------------|--------------------------|
|--------------------------|--------------------------|
|--5--5--5--5--5--5--5--5--|--5--5--5--5--5--5--5--5--|
|--------------------------|--------------------------|

                                      
|--------------------------|--------------------------|
|--------------------------|--------------------------|
|--------------------------|--------------------------|
|--3--3--3--3--3--3--3--3--|--2--2--2--2--2--2--2--2--|

                                      
|--------------------------|--------------------------|
|--------------------------|--------------------------|
|--------------------------|--5--5--5--5--5--5--5--5--|
|--0--0--0--0--0--0--0--0--|--------------------------|

                                      
|--------------------------|--------------------------|
|--------------------------|--------------------------|
|--3--3--3--3--3--3--3--3--|--3--3--3--3--3--3--3--3--|
|--------------------------|--------------------------|

                                      
|--------------------------|--------------------------|
|--------------------------|--------------------------|
|--5--5--5--5--5--5--5--5--|--5--5--5--5--5--5--5--5--|
|--------------------------|--------------------------|

                                      
|--------------------------|--------------------------|
|--------------------------|--------------------------|
|--------------------------|--------------------------|
|--3--3--3--3--3--3--3--3--|--2--2--2--2--2--2--2--2--|

                                      
|--------------------------|--------------------------|
|--------------------------|--------------------------|
|--------------------------|--5--5--5--5--5--5--5--5--|
|--0--0--0--0--0--0--0--0--|--------------------------|

                                      
|--------------------------|--------------------------|
|--------------------------|--------------------------|
|--3--3--3--3--3--3--3--3--|--3--3--3--3--3--3--3--3--|
|--------------------------|--------------------------|

                                      
|--------------------------|--------------------------|
|--------------------------|--------------------------|
|--5--5--5--5--5--5--5--5--|--5--5--5--5--5--5--5--5--|
|--------------------------|--------------------------|

                                      
|--------------------------|--------------------------|
|--------------------------|--------------------------|
|--------------------------|--------------------------|
|--3--3--3--3--3--3--3--3--|--2--2--2--2--2--2--2--2--|

                                      
|--------------------------|--------------------------|
|--------------------------|--------------------------|
|--------------------------|--3--3--3--3--3--3--3--3--|
|--1--1--1--1--1--1--1--1--|--------------------------|

                                      
|--------------------------|--------------------------|
|--------------------------|--------------------------|
|--3--3--3--3--3--3--3--3--|--------------------------|
|--------------------------|--3--3--3--3--3--3--3--3--|

                                      
|--------------------------|--------------------------|
|--------------------------|--------------------------|
|--5--5--5--5--5--5--5--5--|--5--5--5--5--5--5--5--5--|
|--------------------------|--------------------------|
                                      

|--------------------------|--------------------------|
|--------------------------|--------------------------|
|--------------------------|--------------------------|
|--3--3--3--3--3--3--3--3--|--2--2--2--2--2--2--2--2--|

                                      
|--------------------------|--------------------------|
|--------------------------|--------------------------|
|--------------------------|--3--3--3--3--3--3--3--3--|
|--1--1--1--1--1--1--1--1--|--------------------------|

                                      
|--------------------------|--------------------------|
|--------------------------|--------------------------|
|--3--3--3--3--3--3--3--3--|--------------------------|
|--------------------------|--3--3--3--3--3--3--3--3--|

                                      
|--------------------------|--------------------------|
|--------------------------|--------------------------|
|--5--5--5--5--5--5--5--5--|--5--5--5--5--5--5--5--5--|
|--------------------------|--------------------------|

                                      
|--------------------------|--------------------------|
|--------------------------|--------------------------|
|--------------------------|--------------------------|
|--3--3--3--3--3--3--3--3--|--2--2--2--2--2--2--2--2--|

                                      
|--------------------------|--------------------------|
|--------------------------|--------------------------|
|--------------------------|--5--5--5--5--5--5--5--5--|
|--0--0--0--0--0--0--0--0--|--------------------------|

                                      
|--------------------------|--------------------------|
|--------------------------|--------------------------|
|--3--3--3--3--3--3--3--3--|--3--3--3--3--3--3--3--3--|
|--------------------------|--------------------------|

                                      
|--------------------------|--------------------------|
|--------------------------|--------------------------|
|--5--5--5--5--5--5--5--5--|--5--5--5--5--5--5--5--5--|
|--------------------------|--------------------------|

                                      
|--------------------------|--------------------------|
|--------------------------|--------------------------|
|--------------------------|--------------------------|
|--3--3--3--3--3--3--3--3--|--2--2--2--2--2--2--2--2--|

                                      
|--------------------------|--------------------------|
|--------------------------|--------------------------|
|--------------------------|--5--5--5--5--5--5--5--5--|
|--0--0--0--0--0--0--0--0--|--------------------------|
                                      

|--------------------------|--------------------------|
|--------------------------|--------------------------|
|--3--3--3--3--3--3--3--3--|--3--3--3--3--3--3--3--3--|
|--------------------------|--------------------------|


|--------------------------|--------------------------|
|--------------------------|--------------------------|
|--5--5--5--5--5--5--5--5--|--5--5--5--5--5--5--5--5--|
|--------------------------|--------------------------|

                                      
|--------------------------|--------------------------|
|--------------------------|--------------------------|
|--2--2--2--2--2--2--2--2--|--2--2--2--2--2--2--2--2--|
|--------------------------|--------------------------|

                                      
|--------------------------|--------------------------|
|--------------------------|--------------------------|
|--------------------------|--------------------------|
|--0--0--0--0--0--0--0--0--|--0--0--0--0--0--0--0--0--|

                                      
|--------------------------|--------------------------|
|--------------------------|--------------------------|
|--2--2--2--2--2--2--2--2--|--2--2--2--2--2--2--2--2--|
|--------------------------|--------------------------|

                                      
|--------------------------|--------------------------|
|--------------------------|--------------------------|
|--------------------------|--------------------------|
|--0--0--0--0--0--0--0--0--|--0--0--0--0--0--0--0--0--|

                                                         
|--------------------------|--------------------------|--------------------|
|--------------------------|--------------------------|--------------------|
|--3--3--3--3--3--3--3--3--|--3--3--3--3--3--3--3--3--|--7--------5--------|
|--------------------------|--------------------------|--------------------|

                                                        
|--------------------|-------------------|-------------------|
|--------------------|-------------------|-------------------|
|--3--------2--------|-------------------|-------------------|
|--------------------|--3----------------|--2----------------|

                                                                            
|-------------------|-------------------|-------------------|-------------------|
|-------------------|-------------------|-------------------|-------------------|
|-------------------|--5----------------|--3----------------|-------------------|
|--0----------------|-------------------|-------------------|--3----------------|

                                                                            
|-------------------|-------------------|-------------------|-------------------|
|-------------------|-------------------|-------------------|-------------------|
|--3----------------|--5----------------|-------------------|-------------------|
|-------------------|-------------------|--3----------------|--2----------------|

                                                                            
|-------------------|-------------------|-------------------|-------------------|
|-------------------|-------------------|-------------------|-------------------|
|-------------------|--5----------------|--3----------------|-------------------|
|--0----------------|-------------------|-------------------|--3----------------|

                                                                            
|-------------------|-------------------|-------------------|-------------------|
|-------------------|-------------------|-------------------|-------------------|
|--3----------------|--5----------------|-------------------|-------------------|
|-------------------|-------------------|--5----------------|--4----------------|

                                                                            
|-------------------|-------------------|-------------------|-------------------|
|-------------------|-------------------|-------------------|-------------------|
|-------------------|-------------------|--5----------------|-------------------|
|--2----------------|--0----------------|-------------------|--5----------------|

                                                                
|-------------------|-------------------|-----------------------------|
|-------------------|-------------------|-----------------------------|
|-------------------|-------------------|-----------------------------|
|--0----------------|-------------------|-----------------------------|

                                      
|--------------------------|--------------------------|
|--------------------------|--------------------------|
|--------------------------|--------------------------|
|--5--5--5--5--5--5--5--5--|--4--4--4--4--4--4--4--4--|

                                      
|--------------------------|--------------------------|
|--------------------------|--------------------------|
|--------------------------|--------------------------|
|--2--2--2--2--2--2--2--2--|--0--0--0--0--0--0--0--0--|

                                      
|--------------------------|--------------------------|
|--------------------------|--------------------------|
|--5--5--5--5--5--5--5--5--|--5--5--5--5--5--5--5--5--|
|--------------------------|--------------------------|

                                      
|--------------------------|--------------------------|
|--------------------------|--------------------------|
|--------------------------|--------------------------|
|--0--0--0--0--0--0--0--0--|--0--0--0--0--0--0--0--0--|

                                      
|--------------------------|--------------------------|
|--------------------------|--------------------------|
|--0--0--0--0--0--0--0--0--|--------------------------|
|--------------------------|--4--4--4--4--4--4--4--4--|

                                      
|--------------------------|--------------------------|
|--------------------------|--------------------------|
|--------------------------|--------------------------|
|--2--2--2--2--2--2--2--2--|--0--0--0--0--0--0--0--0--|

                                                         
|--------------------------|--------------------------|-------------------|
|--------------------------|--------------------------|-------------------|
|--5--5--5--5--5--5--5--5--|--5--5--5--5--5--5--5--5--|-------------------|
|--------------------------|--------------------------|--0----------------|

                                                                            
|-------------------|-------------------|-------------------|-------------------|
|-------------------|-------------------|-------------------|-------------------|
|-------------------|-------------------|-------------------|-------------------|
|--0----------------|--5----------------|--4----------------|--2----------------|

                                                                            
|-------------------|-------------------|-------------------|-------------------|
|-------------------|-------------------|-------------------|-------------------|
|-------------------|--5----------------|-------------------|--5----------------|
|--0----------------|-------------------|--5----------------|-------------------|

                                                                            
|-------------------|-------------------|-------------------|-------------------|
|-------------------|-------------------|-------------------|-------------------|
|--7----------------|-------------------|-------------------|-------------------|
|-------------------|--5----------------|--4----------------|--2----------------|
                                                                            

|-------------------|-------------------|-------------------|-------------------|
|-------------------|-------------------|-------------------|-------------------|
|-------------------|--5----------------|-------------------|--5----------------|
|--0----------------|-------------------|--5----------------|-------------------|
                                                                            

|-------------------|-------------------|-------------------|-------------------|
|-------------------|-------------------|-------------------|-------------------|
|--7----------------|--0----------------|-------------------|-------------------|
|-------------------|-------------------|-------------------|-------------------|


|-------------------|-------------------|-------------------|-------------------|
|-------------------|-------------------|-------------------|-------------------|
|-------------------|-------------------|-------------------|-------------------|
|-------------------|-------------------|-------------------|-------------------|


|-------------------|-------------------|-------------------|-------------------|
|-------------------|-------------------|-------------------|-------------------|
|-------------------|-------------------|-------------------|-------------------|
|-------------------|-------------------|-------------------|-------------------|


|-------------------|-------------------|-------------------|-------------------|
|-------------------|-------------------|-------------------|-------------------|
|-------------------|-------------------|-------------------|-------------------|
|-------------------|-------------------|-------------------|-------------------|


|-------------------||
|-------------------||
|-------------------||
|-------------------||
Suggest correction
comments
print report bad tab
guest
You may want to rate the tab now too:
select rating
Wanna post a correction for this tab? Suggest correction