Oops, an error
Loading. Please wait.
We have an official Welcome To The Black Parade tab made by UG professional guitarists. Check out the tab »
×

Welcome To The Black Parade Tab

version 3
version 3

Whole song

311,623 views 87 this week
86 commentsread comments
1 2 3 4 5
x 158
add to favorites
launch autoscroll
font size
0
reset
how to read this tab
guitar tuner
backing track
0:00
0:00
×
Best way to learn
"Welcome To The Black Parade"
Autoscroll
slow
fast
+/-
esc
set tempo
stop
Artist: My Chemical Romance
Song: Welcome To The Black Parade
Tuning: Standard

Guitar 1:

[Intro]
(Piano)
e|-15------14------19-----------------15--------------------12-------------|
B|-----------------------17----15------------13-------12---------------15--|
G|--------------------------------------------------------------14---------|
D|-------------------------------------------------------------------------|
A|-------------------------------------------------------------------------|x8
E|-------------------------------------------------------------------------|

[Solo]
e|------------------------------------------------------------------|
B|-----------------------------------------12-15b17-15--12--12~-----|
G|-----------------12-------12---14--12h14--------------------------|
D|-12b14--12--10~-------12------------------------------------------|
A|------------------------------------------------------------------|
E|------------------------------------------------------------------|

e|-----------------------------------------|
B|-15b17-15-12-12~-15b17--12---------------|
G|------------------------------12---14~---|
D|-----------------------------------------|
A|-----------------------------------------|
E|-----------------------------------------|

e|--------------------------------------------------------------------------|
B|--------------------------------------------------------------------------|
G|-12~----12-14~-12h14-12-15b17-15-12-12~--15b17-15-12-12~--15-12-----------|
D|-----12---------------------------------------------------------12-14-16~-|
A|--------------------------------------------------------------------------|
E|--------------------------------------------------------------------------|

[Post-Intro]
e|-----------------------------------------------------------------------|
B|-----------------------------------------------------------------------|
G|---------------------------77777777-55555555-55555555-4444444-77777777-|
D|-5555555-44444444-22222222-77777777-55555555-55555555-5555555-77777777-|
A|-5555555-55555555-22222222-55555555-33333333-33333333-2222222-55555555-|
E|-3333333-22222222-00000000---------------------------------------------|
 
[Verse]
 "Sometimes I get the feeling, She's watching over me.."
e|-----------------------------------------------------------------------------|
B|-----------------------------------------------------------------------------|
G|-------------------------------7----7---7-55555555-44444444------------------|
D|-55555555-44444444-22222222-77-7-77-7-7-7-55555555-55555555-7777777777777777-|
A|-55555555-55555555-22222222-55---55---5---33333333-22222222-7777777777777777-|
E|-33333333-22222222-00000000---------------------------------5555555555555555-|       
PM ........ ........ ........ ..   ..   .   ........ ........ ............... 

e|----------------------------------------------------------------------------|
B|----------------------------------------------------------------------------|
G|-----------------------------------------------77-7-77-7-7-7--55-5-55-5-5-5-|
D|--55-5-55-5-5-5--44-4-44-4-4-4--22-2-22-2-2-2--77-7-77-7-7-7--55-5-55-5-5-5-|
A|--55-5-55-5-5-5--55-5-55-5-5-5--22-2-22-2-2-2--55---55---5----33-3-33-3-3-3-|
E|--33-3-33-3-3-3--22-2-22-2-2-2--00-0-00-0-0-0-------------------------------|
PM ..   ..   .    ..   ..   .    ..   ..   .    ..   ..   .    .. . .. . . .

e|----------------------------------------|
B|----------------------------------------|
G|-44-4-44-4-4-4--------------------------|
D|-55-5-55-5-5-5--7777777777777777--------|
A|-22-2-22-2-2-2--7777777777777777--------|
E|----------------5555555555555555--------|
PM ..   ..   .    ................

[Chorus]
"We'll carry on, we'll carry on.."
e|-------------------------------------------------------------------------|
B|-------------------------------------------------------------------------|
G|-------------------------------------55555555-55555555-77777777-77777777-|
D|-55555555-44444444-22222222-22222222-55555555-55555555-77777777-77777777-|
A|-55555555-55555555-22222222-22222222-33333333-33333333-55555555-55555555-|x2
E|-33333333-22222222-00000000-00000000-------------------------------------|

[Verse]
e|-----------------------------------------------------------------------------|
B|-----------------------------------------------------------------------------|
G|-------------------------------7----7---7-55555555-44444444------------------|
D|-55555555-44444444-22222222-77-7-77-7-7-7-55555555-55555555-7777777777777777-|
A|-55555555-55555555-22222222-55---55---5---33333333-22222222-7777777777777777-|
E|-33333333-22222222-00000000---------------------------------5555555555555555-|       
PM ........ ........ ........ ..   ..   .   ........ ........ ............... 

e|----------------------------------------------------------------------------|
B|----------------------------------------------------------------------------|
G|-----------------------------------------------77-7-77-7-7-7--55-5-55-5-5-5-|
D|--55-5-55-5-5-5--44-4-44-4-4-4--22-2-22-2-2-2--77-7-77-7-7-7--55-5-55-5-5-5-|
A|--55-5-55-5-5-5--55-5-55-5-5-5--22-2-22-2-2-2--55---55---5----33-3-33-3-3-3-|
E|--33-3-33-3-3-3--22-2-22-2-2-2--00-0-00-0-0-0-------------------------------|
PM ..   ..   .    ..   ..   .    ..   ..   .    ..   ..   .    .. . .. . . .

e|----------------------------------------|
B|----------------------------------------|
G|-44-4-44-4-4-4--------------------------|
D|-55-5-55-5-5-5--7777777777777777--------|
A|-22-2-22-2-2-2--7777777777777777--------|
E|----------------5555555555555555--------|
PM ..   ..   .    ................

[Chorus]
"We'll carry on, we'll carry on.."
e|-------------------------------------------------------------------------|
B|-------------------------------------------------------------------------|
G|-------------------------------------55555555-55555555-77777777-77777777-|
D|-55555555-44444444-22222222-22222222-55555555-55555555-77777777-77777777-|
A|-55555555-55555555-22222222-22222222-33333333-33333333-55555555-55555555-|x2
E|-33333333-22222222-00000000-00000000-------------------------------------|

[Bridge]
"On and on, we carry through the fears. Ohh, ohh, ohh.."
e|------------------------------------------------------------|
B|------------------------------------------------------------|
G|------------------------------------------------------------|
D|----4----4---4-----4----4---4-----2----2---2-----2----2---2-|
A|-55-5-55-5-5-5--55-5-55-5-5-5--22-2-22-2-2-2--22-2-22-2-2-2-| x2
E|-22-2-22-2-2-2--22-2-22-2-2-2--00-0-00-0-0-0--00-0-00-0-0-0-|
PM ..   ..   .    ..   ..   .    ..   ..   .    ..   ..   .

e|-----------------------------------|
B|-----------------------------------|
G|-55555555-55555555-------7---5---4-|
D|-55555555-55555555---2---7---5---4-|
A|-33333333-33333333---2---5---3---2-|
E|---------------------0-------------|

"Do or die, you'll never make me. Because the world, will never take my heart.."
e|-------------------------------------------------------------------------|
B|-------------------------------------------------------------------------|
G|----------------------7~-----5~------------5~-----7~---------------------|
D|-5~-----4~-----2~-----7~-----5~-----5~-----5~-----7~-----5~-----4~-----2~|
A|-5~-----5~-----2~-----5~-----3~-----5~-----3~-----5~-----5~-----5~-----2~|
E|-3~-----2~-----0~-------------------3~-------------------3~-----2~-----0~|

e|------------------|
B|------------------|
G|-7~----5~---------|
D|-7~----5~------5~-|
A|-5~----3~------5~-|
E|---------------3~-|

[Solo]
e|----------------------------------------------------------------------|
B|-------------------------------------------8-10h12--10-12h13-12-13h15-|
G|----------------------------------------------------------------------|
D|-7-9h10-9-10h12-10h12-7-9h10-9-10h12-10h12----------------------------|
A|----------------------------------------------------------------------|
E|----------------------------------------------------------------------|

e|-8-10h12-13h15-17h19--21~-21-19-18-19-18-19-18-18h21p19-18-19-18-19-18-16-16~|
B|-----------------------------------------------------------------------------|
G|-----------------------------------------------------------------------------|
D|-----------------------------------------------------------------------------|
A|-----------------------------------------------------------------------------|
E|-----------------------------------------------------------------------------|

e|-14-16-14-12-14-12-16-14-12-14-12-14-12-10-9-10-9-12-14-12-10-9-10~---|
B|----------------------------------------------------------------------|
G|----------------------------------------------------------------------|
D|----------------------------------------------------------------------|
A|----------------------------------------------------------------------|
E|----------------------------------------------------------------------|

e|-12-10-12-14-16-14-9-9-----|
B|-----------------------10~-|
G|---------------------------|
D|---------------------------|
A|---------------------------|
E|---------------------------|

[Final Chorus]
e|-------------------------------------------------------------------------|
B|-------------------------------------------------------------------------|
G|-------------------------------------77777777-77777777-------------------|
D|-77777777-66666666-44444444-22222222-77777777-77777777-22222222-22222222-|
A|-77777777-77777777-44444444-22222222-55555555-55555555-22222222-22222222-|
E|-55555555-44444444-22222222-00000000-------------------00000000-00000000-|

e|--------------------------------------------------------|
B|--------------------------------------------------------|
G|-------------------------------------77777777-77777777--|
D|-77777777-66666666-44444444-22222222-77777777-77777777--|
A|-77777777-77777777-44444444-22222222-55555555-55555555--| x2
E|-55555555-44444444-22222222-00000000--------------------|

[Outro]
"Do or die, you'll never make me. Because the world will never take my heart.."
e|---------------------------------------------------------------------|
B|---------------------------------------------------------------------|
G|-------------------------------------------7~-------------7~------9~-|
D|-2~-----2~------7~-----6~------4~----2~----7~------7~-----7~------9~-|
A|-2~-----2~------7~-----7~------4~----2~----5~------7~-----5~------7~-|
E|-0~-----0~------5~-----4~------2~----0~------------5~----------------|

e|-------------------------------------------------------------|
B|-------------------------------------------------------------|
G|-------------------------------7~----------7~------9~--------|
D|-7~-----6~------4~-----2~------7~----7~----7~------9~-----7~-|
A|-7~-----7~------4~-----2~------5~----7~----5~------7~-----7~-|
E|-5~-----4~------2~-----0~------------5~-------------------5~-|

[Intro]
Guitar 2:
e|-7/12--7----8/10--7-----8\7----3---5~-------|
B|--------------------------------------------|
G|--------------------------------------------|
D|--------------------------------------------|x3
A|--------------------------------------------|
E|--------------------------------------------|

e|------------------------------------------------------------|
B|------------------------------------------------------------|
G|----------------7~---5~---4~-------7~------------------7~---|
D|-5~---4~---2~---7~---5~---5~--7~---7~---5~---4~---2~---7~---|
A|-5~---5~---2~---5~---3~---2~--7~---5~---5~---5~---2~---5~---|
E|-3~---2~---0~-----------------5~--------3~---2~---0~--------|

e|------------------------------------------------------------|
B|------------------------------------------------------------|
G|-5~---4~--------7~------------------7~---5~---4~-------7~---|
D|-5~---5~---7~---7~---5~---4~---2~---7~---5~---5~--7~---7~---|
A|-3~---2~---7~---5~---5~---5~---2~---5~---3~---2~--7~---5~---|
E|-----------5~--------3~---2~---0~-----------------5~--------|

[Post-Intro]
e|-----------------------------------------------------------------------|
B|-----------------------------------------------------------------------|
G|-12121212121212/1414141414141414-19191919-21212121-171717171717-16-14--|
D|--x-x-x-x-x-x-x/-x-x-x-x-x-x-x-x--x-x-x-x--x-x-x-x--x-x-x-x-x-x--x--x--|
A|-10101010101010/1212121212121212-17171717-19191919-151515151515-14-12--|
E|-----------------------------------------------------------------------|

e|----------------------------------------------------------------------|
B|----------------------------------------------------------------------|
G|-12121212121212121212121212121212/16161616-171717\16-1414141414141414-|
D|--x-x-x-x-x-x-x-x-x-x-x-x-x-x-x-x/-x-x-x-x--x-x-x\-x--x-x-x-x-x-x-x-x-|
A|-10101010101010101010101010101010/14141414-151515\14-1212121212121212-|
E|----------------------------------------------------------------------|

[Verse]
"Sometimes I get the feeling, She's watching over me.."
e|-----------------------------------------------------------------------------|
B|-----------------------------------------------------------------------------|
G|-------------------------------7----7---7-55555555-44444444------------------|
D|-55555555-44444444-22222222-77-7-77-7-7-7-55555555-55555555-7777777777777777-|
A|-55555555-55555555-22222222-55---55---5---33333333-22222222-7777777777777777-|
E|-33333333-22222222-00000000---------------------------------5555555555555555-|       
PM ........ ........ ........ ..   ..   .   ........ ........ ............... 

e|----------------------------------------------------------------------------|
B|----------------------------------------------------------------------------|
G|-----------------------------------------------77-7-77-7-7-7--55-5-55-5-5-5-|
D|--55-5-55-5-5-5--44-4-44-4-4-4--22-2-22-2-2-2--77-7-77-7-7-7--55-5-55-5-5-5-|
A|--55-5-55-5-5-5--55-5-55-5-5-5--22-2-22-2-2-2--55-5-55-5-5-5--33-3-33-3-3-3-|
E|--33-3-33-3-3-3--22-2-22-2-2-2--00-0-00-0-0-0-------------------------------|
PM ..   ..   .    ..   ..   .    ..   ..   .    ..   ..   .    .. . .. . . .

e|----------------------------------------|
B|----------------------------------------|
G|-44-4-44-4-4-4--------------------------|
D|-55-5-55-5-5-5--7777777777777777--------|
A|-22-2-22-2-2-2--7777777777777777--------|
E|----------------5555555555555555--------|
PM ..   ..   .    ................

[Chorus]
"We'll carry on, we'll carry on.."
e|-----------------------------------------------------------------|
B|-----------------------------------------------------------------|
G|-1212121212121212/16161616-11111111-99999999-121212\11-12-16-----|
D|--x-x-x-x-x-x-x-x/-x-x-x-x-x-x-x-x--xxxxxxxx--x-x-x\x--x--x------|
A|-1010101010101010/14141414-9-9-9-9--77777777-101010\9-10-14------|
E|-----------------------------------------------------------------|

e|----------------------------------------------------------------------|
B|----------------------------------------------------------------------|
G|-12121212121212121212121212121212/16161616/171717\16-1414141414141414-|
D|--x-x-x-x-x-x-x-x-x-x-x-x-x-x-x-x/-x-x-x-x/-x-x-x\-x--x-x-x-x-x-x-x-x-| 
A|-10101010101010101010101010101010/14141414/151515\14-1212121212121212-|
E|----------------------------------------------------------------------|

e|-----------------------------------------------------------------|
B|-----------------------------------------------------------------|
G|-1212121212121212/16161616-11111111-99999999-121212\11-12-16-----|
D|--x-x-x-x-x-x-x-x/-x-x-x-x-x-x-x-x--xxxxxxxx--x-x-x\x--x--x------|
A|-1010101010101010/14141414-9-9-9-9--77777777-101010\9-10-14------|
E|-----------------------------------------------------------------|

e|----------------------------------------------------------------------------|
B|----------------------------------------------------------------------------|
G|-12121212121212\11111111-9-9-9-9-9/16-16-16-16/17-17-17\16-1414141414141414-|
D|--x-x-x-x-x-x-x\x-x-x-x--x-x-x-x-x/-x--x--x--x/-x--x--x\-x--x-x-x-x-x-x-x-x-| 
A|-10101010101010\9-9-9-9--7-7-7-7-7/14-14-14-14/15-15-15\14-1212121212121212-|
E|----------------------------------------------------------------------------|

[Verse]
e|-----------------------------------------------------------------------------|
B|-----------------------------------------------------------------------------|
G|-------------------------------7----7---7-55555555-44444444------------------|
D|-55555555-44444444-22222222-77-7-77-7-7-7-55555555-55555555-7777777777777777-|
A|-55555555-55555555-22222222-55---55---5---33333333-22222222-7777777777777777-|
E|-33333333-22222222-00000000---------------------------------5555555555555555-|       
PM ........ ........ ........ ..   ..   .   ........ ........ ............... 

e|----------------------------------------------------------------------------|
B|----------------------------------------------------------------------------|
G|-----------------------------------------------77-7-77-7-7-7--55-5-55-5-5-5-|
D|--55-5-55-5-5-5--44-4-44-4-4-4--22-2-22-2-2-2--77-7-77-7-7-7--55-5-55-5-5-5-|
A|--55-5-55-5-5-5--55-5-55-5-5-5--22-2-22-2-2-2--55---55---5----33-3-33-3-3-3-|
E|--33-3-33-3-3-3--22-2-22-2-2-2--00-0-00-0-0-0-------------------------------|
PM ..   ..   .    ..   ..   .    ..   ..   .    ..   ..   .    .. . .. . . .

e|----------------------------------------|
B|----------------------------------------|
G|-44-4-44-4-4-4--------------------------|
D|-55-5-55-5-5-5--7777777777777777--------|
A|-22-2-22-2-2-2--7777777777777777--------|
E|----------------5555555555555555--------|
PM ..   ..   .    ................

[Chorus]
e|-----------------------------------------------------------------|
B|-----------------------------------------------------------------|
G|-1212121212121212/16161616-11111111-99999999-121212\11-12-16-----|
D|--x-x-x-x-x-x-x-x/-x-x-x-x-x-x-x-x--xxxxxxxx--x-x-x\x--x--x------|
A|-1010101010101010/14141414-9-9-9-9--77777777-101010\9-10-14------|
E|-----------------------------------------------------------------|

e|----------------------------------------------------------------------|
B|----------------------------------------------------------------------|
G|-12121212121212121212121212121212/16161616/171717\16-1414141414141414-|
D|--x-x-x-x-x-x-x-x-x-x-x-x-x-x-x-x/-x-x-x-x/-x-x-x\-x--x-x-x-x-x-x-x-x-| 
A|-10101010101010101010101010101010/14141414/151515\14-1212121212121212-|
E|----------------------------------------------------------------------|

e|-----------------------------------------------------------------|
B|-----------------------------------------------------------------|
G|-1212121212121212/16161616-11111111-99999999-121212\11-12-16-----|
D|--x-x-x-x-x-x-x-x/-x-x-x-x-x-x-x-x--xxxxxxxx--x-x-x\x--x--x------|
A|-1010101010101010/14141414-9-9-9-9--77777777-101010\9-10-14------|
E|-----------------------------------------------------------------|

e|----------------------------------------------------------------------------|
B|----------------------------------------------------------------------------|
G|-12121212121212\11111111-9-9-9-9-9/16-16-16-16/17-17-17\16-1414141414141414-|
D|--x-x-x-x-x-x-x\x-x-x-x--x-x-x-x-x/-x--x--x--x/-x--x--x\-x--x-x-x-x-x-x-x-x-| 
A|-10101010101010\9-9-9-9--7-7-7-7-7/14-14-14-14/15-15-15\14-1212121212121212-|
E|----------------------------------------------------------------------------|

[Bridge]
"On and on, we carry through the fears. Ohh, ohh, ohh.."
e|------------------------------------------------------------------------------|
B|------------------------------------------------------------------------------|
G|-xx--11-xx--11-x--11-xx--11-xx--11-x--11-9-9-xx-12121212-11-11-11-11-16161616-|
D|-xx--x--xx--x--x--x--xx--x--xx--x--x--x--x-x-xx--x-x-x-x-x-x-x-x--x---x-x-x-x-|
A|-xx--9--xx--9--x--9--xx--9--xx--9--x--9--7-7-xx-10101010-9--9--9--9--14141414-|
E|------------------------------------------------------------------------------|

e|------------------------------------------------------------------------------|
B|------------------------------------------------------------------------------|
G|-xx--11-xx--11-x--11-xx--11-xx--11-x--11-9-9-xx-12121212-11-11-11-11-16161616-|
D|-xx--x--xx--x--x--x--xx--x--xx--x--x--x--x-x-xx--x-x-x-x-x-x-x-x--x---x-x-x-x-|
A|-xx--9--xx--9--x--9--xx--9--xx--9--x--9--7-7-xx-10101010-9--9--9--9--14141414-|
E|------------------------------------------------------------------------------|

(Continued below)

e|--------------------------------------------------|
B|--------------------------------------------------|
G|-12121212121212121212121212121212---9---7---5---4-|
D|--x-x-x-x-x-x-x-x-x-x-x-x-x-x-x-x---x---x---x---x-|
A|-10101010101010101010101010101010---7---5---3---2-|
E|--------------------------------------------------|

"Do or die, you'll never make me. Because the world, will never take my heart.."
e|-------------------------------------------------------------------------|
B|-------------------------------------------------------------------------|
G|----------------------7~-----5~------------5~-----7~---------------------|
D|-5~-----4~-----2~-----7~-----5~-----5~-----5~-----7~-----5~-----4~-----2~|
A|-5~-----5~-----2~-----5~-----3~-----5~-----3~-----5~-----5~-----5~-----2~|
E|-3~-----2~-----0~-------------------3~-------------------3~-----2~-----0~|

e|-------------------------------------------------------------------------|
B|-------------------------------------------------------------------------|
G|-7~----5~-------------5~-----7~---------------------------------7~-------|
D|-7~----5~------5~-----5~-----7~-----7~-----6~-----4~-----2~-----7~-----7~|
A|-5~----3~------5~-----3~-----5~-----7~-----7~-----4~-----2~-----5~-----7~|
E|---------------3~-------------------5~-----4~-----2~-----0~------------5~|

e|--------------------------------------|
B|--------------------------------------|
G|-4--------------6-----------4---------|
D|-4-44444444-----7-77777777--4---------|
A|-2-22222222-----4-44444444--2---------|
E|--------------------------------------|
PM   ........       ........
 
[Final Chorus] 
e|---------------------------------------------------------------------|
B|---------------------------------------------------------------------|
G|-1414141414141414-18181818-13131313-1111111111111111-141414\13-14/18-|
D|--x-x-x-x-x-x-x-x--x-x-x-x--x-x-x-x-x-x-x-x-x-x-x-x---x-x-x\-x--x/-x-|
A|-1212121212121212-16161616-11111111-9-9-9-9-9-9-9-9--121212\11-12/16-|
E|---------------------------------------------------------------------|

e|----------------------------------------------------------------------|
B|----------------------------------------------------------------------|
G|-14141414141414141414141414141414-18181818-191919-18-1616161616161616-|
D|--x-x-x-x-x-x-x-x-x-x-x-x-x-x-x-x--x-x-x-x--x-x-x--x--x-x-x-x-x-x-x-x-|
A|-12121212121212121212121212121212-16161616-171717-16-1414141414141414-|
E|----------------------------------------------------------------------|

e|-----------------------------------------------------------------------|
B|-----------------------------------------------------------------------|
G|-1414141414141414-18181818-13131313-1616161616161616-1818181818181818--|
D|--x-x-x-x-x-x-x-x--x-x-x-x--x-x-x-x--x-x-x-x-x-x-x-x--x-x-x-x-x-x-x-x--|
A|-1212121212121212-16161616-11111111-1414141414141414-1616161616161616--|
E|-----------------------------------------------------------------------|

(Continued below)

e|------------------------------------------------------------------------|
B|------------------------------------------------------------------------|
G|-14141414141414141414141414141414---16--18--16--18--16--18--19--18--14~-|
D|--x-x-x-x-x-x-x-x-x-x-x-x-x-x-x-x----x---x---x---x---x---x---x---x---x~-|
A|-12121212121212121212121212121212---14--16--14--16--14--16--17--16--12~-|
E|------------------------------------------------------------------------|

[End on]
e|-----|
B|-----|
G|-----|
D|--7~-|
A|--7~-|
E|--5~-|

************************************

| b   Bend
| ~   Vibrato
| h   Hammer-on
| PM  Palm mute
| p   Pull-off
| /   Slide up
| \   Slide down
| x   Dead note

************************************ 
Suggest correction
comments
print report bad tab
86 comments total. Showing first comments.
-1 reply
geminivenom 10 Sep 13, 2006 04:26 AM

yeah - i checked it out and figured one thing - the solo in f1f2's guitar pro tab is the same as wat's in here.,.,..,.,.,.,.,.

-2 reply
ziplocman 10 Sep 13, 2006 01:48 PM

umm how do i get guitar pro tabs??Rofl i no im a noob but plz help

good tab though 4*

0 reply
kiefermatot 10,367 Sep 13, 2006 02:51 PM

Yeah, the solo is f1f2's work, not mine.

I also realized the first part of the intro is still incomplete and there are little guitar parts here and there missing.

I have updated, and it is currently pending. If anyone has corrections, or anything to add, you will be credited.

Thanks.

guest
You may want to rate the tab now too:
select rating
Wanna post a correction for this tab? Suggest correction