Oops, an error
Loading. Please wait.

Welcome To The Black Parade Bass Tab

version 4
4,103 views 6 this week
no commentswrite comment
1 2 3 4 5
1 last vote to show rating
add to favorites
launch autoscroll
font size
0
reset
guitar tuner
Autoscroll
slow
fast
+/-
esc
set tempo
stop
Help us to improve Ultimate-Guitar.com Take our survey!
×
Author
Difficulty
intermediate
Standard Tuning EADG

Intro 0.38
G|-------------------------------------------|
D|-12/-17---16---14-----------------------12-|
A|--------------------17---15---14---12------|
E|-------------------------------------------|

|---------------------------------------|
|-17---16---14-----------------------12-| X2
|----------------17---15---14---12------|
|---------------------------------------|

|-------------------------------|
|-------------------------------| X2
|-------------5---3---2---0---5-|
|-3---2---0---------------------|

|-----------------------------------|
|-----------------------------------|
|-------------5---3---2---0---5-5---|
|-3---2---0-----------------------3-|

Verse
|-----------------------------------------------------------------|
|-----------------------------------------------------------------|(do not)
|----------------------------55555555-333333333333-555555555555---|(repeat)
|-33333333-22222222-00000000--------------------------------------|(this)

|-----------------------------------------------------------------------|
|-----------------------------------------------------------------------| X2
|----------------------------3333333333333333----------5555555555555555-|
|-33333333-22222222-11111111------------------33333333------------------|

Chorus
|---------------------------------------------------------------|
|---------------------------------------------------------------| X2
|----------------------------55555555-333333333333-555555555555-|
|-33333333-22222222-00000000------------------------------------|

Verse
|-----------------------------------------------------------------------|
|-----------------------------------------------------------------------| X2
|----------------------------3333333333333333----------5555555555555555-|
|-33333333-22222222-11111111------------------33333333------------------|

Chorus
|---------------------------------------------------------------|
|---------------------------------------------------------------|
|----------------------------55555555-333333333333-555555555555-|
|-33333333-22222222-00000000------------------------------------|

|---------------------------------------------------------------------|
|---------------------------------------------------------------------|
|----------------------------55555555-333333333333-555555555555-5---3-|
|-33333333-22222222-00000000------------------------------------------|

Bridge
|----------------------|
|----------------------| X2
|-22222222-------------| (pause till drums stop)
|----------00000000----| (short solo both times)

|----------------------------|
|----------------------------|
|-3333333333333333-6-5-3-2-2-|
|----------------------------|

|-------------------------------|
|-------------------------------| X2
|-------------5---3-------3---5-|
|-3---2---0-----------3---------|

|----------------------------------------------|
|----------------------------------------------|
|-----------------5----------------------------|
|-5---4---2---0--------5-000000000000000000000-|

Chorus
|-------------------------------------------------------------------|
|-------------------------------------------------------------------| X2
|-------------------------------------55555555555555----------------|
|-55555555-44444444-22222222-00000000----------------00000000000000-|

Outro
|------------------------------------------------------------------|
|------------------------------------------------------------------|
|-----------------5------------------------------------5-----------|
|-5---4---2---0------0-0-0-0---0---0---5---4---2---0-------0-0-0-0-|

|----|
|----|
|----|
|-5~-|

I was looking for cool tabs and I look up this song, and the original that I saw on this 
was by Adam Vaughani, but after playing it for a while, I heard some things and notes 
here were wrong, but maybe not.  Here's MY fixed version.

/ = Slide Up
~ = Let ring
Suggest correction
Give kudos to tab author, rate the tab!
1 2 3 4 5
comments
print report bad tab
guest
You may want to rate the tab now too:
select rating
Wanna post a correction for this tab? Suggest correction