Oops, an error
Loading. Please wait.

You Know What They Do To Guys Like Us In Prison Tab

version 1
version 1
4,387 views 12 this week
3 commentsread comments
1 2 3 4 5
x 4
add to favorites
launch autoscroll
font size
0
reset
how to read this tab
guitar tuner
Autoscroll
slow
fast
+/-
esc
set tempo
stop
Help us to improve Ultimate-Guitar.com Take our survey!
×
Author
Difficulty
intermediate
"You Know What They Do to Guys Like Us In Prison" - My Chemical Romance

tabbed by: zuvembie82 aka Nicole
thanks to mcr_01_fan for basically providing a template to start with and modify.

Guitars 1 & 2 - Ray Toro (when played live, otherwise Gtr 1 is overdubbed)
standard tuning

Legend
( )  = Natural Harmonic
br  = bend then return
b   = bend
~   = Let ring 
h   = hammer on
p   = pull off




Gtr 1 - Distortion w/ wah pedal    (left Speaker)

e|-22----------------------------------------------------------------------------------|
B|-------------------------------------------------------------------------------------|
G|----------7--5-------------0~---5br----------------6br-------------------------------|
D|-----------------8--7--8-------------8--7--5--3~--------8--7--5--4~------------------|
A|-------------------------------------------------------------------------------------|
E|-------------------------------------------------------------------------------------|


Gtr 1 - continued (This is where it starts to overlap)

e|------------------|--------------------------------|-----------------------------------|
B|------------------|--------------------------------|-----------------------------------|
G|--5--4--2--4--5---|--------------------------------|-----------------------------------|
D|------------------|----2---------------------------|------(5)---(3)--------------------|
A|------------------|--------------------------------|-----------------------------------|
E|------------------|--------------------------------|-----------------------------------|
   tremolo pick after the  1st bar while rocking wah;       finish with these


Gtr 2 - Distortion w/ wah pedal 

e|-----------------------|----------------------------------------------------------------|
B|-----------------------|----------------------------------------------------------------|
G|-----------------------|---------------------------------7h9h10-7h9h10-9h10h11-9h10h11--|
D|--8~---7--5--7--8--10--|-----------------8h10h11-8h10h11--------------------------------|
A|-----------------------|-9h11h12-9h11h12------------------------------------------------|
E|-----------------------|----------------------------------------------------------------|
    max treble on wah     start with max bass, then as the triplets end, go to max treble


gtr 2 - Continued

e|-----------------7h9h10-7h9h10--12p10p8--------------------13----12----10---------------|
B|-8h10h11-8h10h11-------------------------11p10p8--8~----10----10----10----10-13-10-12---|
G|----------------------------------------------------------------------------------------|
D|----------------------------------------------------------------------------------------|
A|----------------------------------------------------------------------------------------|
E|----------------------------------------------------------------------------------------|


gtr 2 - Continued

e|------------------------|--------------------17---18--20----------21b--21b--21b---(5)~--|
B|------------------------|-----16---18---20----------------------------------------------|
G|---12--14--12br--10-----|---------------------------------------------------------------|
D|------------------------|---------------------------------------------------------------|
A|------------------------|---------------------------------------------------------------|
E|------------------------|---------------------------------------------------------------|
                                              tremolo pick these individually a few times
Suggest correction
comments
print report bad tab
3 comments total.
0 reply
mcr_01_fan 697 Nov 09, 2008 11:24 PM

Hey :) good job here, better than mine at least :)

0 reply
zuvembie82 16 Nov 16, 2008 01:40 PM

thanx!

0 reply
JCrompton 79 Oct 01, 2010 04:42 PM

this isn't that bad. He trems the last few notes though, and he picks all the fast notes (for once lmao) but that doesn't damage my vote.

guest
You may want to rate the tab now too:
select rating
Wanna post a correction for this tab? Suggest correction