Oops, an error
Loading. Please wait.

You Know What They Do To Guys Like Us In Prison Tab

version 1
version 1

Whole song

6,713 views 3 this week
13 commentsread comments
1 2 3 4 5
not so good
x 13
add to favorites
launch autoscroll
font size
0
reset
how to read this tab
guitar tuner
Autoscroll
slow
fast
+/-
esc
set tempo
stop
Help us to improve Ultimate-Guitar.com Take our survey!
×
Contributor
this is the best song off my chemical romances new c.d. hope i tabbed it right
Tuning:drop d
intro/verse (not sure about this part) "in the middle of a gun fight....." 
e|---------------------------------------------------------------------------|
B|---------------------------------------------------------------------------|
G|-3------8------7------5------3------2--------------------------------------|
D|-5(x8)--8(x6)--7(x2)--5(x8)--3(x4)--2(x4)----------------------------------|
A|-5------6------5------3------1------0--------------------------------------|
D|-5-------------------------------------------------------------------------|
Guitar 2 lead (comes in after "come with your arms raised high") 
e|---------------------------------------------------------------------------|
B|-------------------1-----3-3-3--3-4-3--------------------------------------|
G|-2-2-2--2-0--2-2-2---3-2--------------3-5--3-3-3-5-3-2---------------------|
D|--------------------------------------------------------3------------------|
A|---------------------------------------------------------------------------|
D|---------------------------------------------------------------------------|
before chorus
e|---------------------------------------------------------------------------|
B|-3-3-3--4-3-4-3-4-3-3-4-3-1------------------------------------------------|
G|----------------------------3-2--------------------------------------------|
D|---------------------------------------------------------------------------|
A|---------------------------------------------------------------------------|
D|---------------------------------------------------------------------------|
Chorus (listen to the song for the strum pattern)
e|---------------------------------------------------------------------------|
B|-8-----6-------------------------------------------------------------------|
G|-7--5--5----7-----8-----11-------------------------------------------------|
D|-5--5--3----x(x6)-x(x2)-x-(x6)---------------------------------------------|
A|-5--3--3----5-----6-----9--------------------------------------------------|
D|-5-----3-------------------------------------------------------------------|
verse 2 lead (not sure about this but it sounds ok if played right)
e|---------------------------------------------------------------------------|
B|-3(x6)-4-4-3(x4)-----------------------------------------------------------|
G|-----------------3-3-5-5-2(x6)-3-0(x8)-2(x6)-3-2(x6)-3-2-5-5-3-3-2-2-0-0---|
D|---------------------------------------------------------------------------|
A|---------------------------------------------------------------------------|
D|---------------------------------------------------------------------------|

e|---------------------------------------------------------------------------|
B|---------------------------------------------------------------------------|
G|-2(x5)--0-0-0--------------------------------------------------------------|
D|---------------------------------------------------------------------------|
A|---------------------------------------------------------------------------|
D|---------------------------------------------------------------------------|
verse 2 lead during  "i miss my mom......" is slightly different it starts out
like this then eventually blends in with the 1st verse 2 lead 
e|---------------------------------------------------------------------------|
B|-3(x12)/-6-6-3-3-----------------------------------------------------------|
G|---------------------------------------------------------------------------|
D|---------------------------------------------------------------------------|
A|---------------------------------------------------------------------------|
D|---------------------------------------------------------------------------|
bridge ("to your room.....") (rythym is pretty much chorus)
solo (sounds good to me but probably not how the guitarist plays it)
e|15-------------------------------------------------------------------------|
B|---------------------------------------------------------------------------|
G|---12-5-7-5-3-3--3-0--5-7-5-3-3-3---5-7-5-3-3-3----------------------------|
D|-----------------------------------3------------4-2-0-7-5-7-8--------------|
A|---------------------------------------------------------------------------|
D|---------------------------------------------------------------------------|
i couldnt figure out the rest sorry

"life is but a" (clean)
e|---------------------------------------------------------------------------|
B|-8-8-8-8-8-8-8-8-----------------------------------------------------------|
G|-7-7-7-7-7-7-7-7-----------------------------------------------------------|
D|-5-5-5-5-5-5-5-5-----------------------------------------------------------|
A|-5-5-5-5-5-5-5-5-----------------------------------------------------------|
D|-5-5-5-5-5-5-5-5-----------------------------------------------------------|
"dream for the dead" rest of the chorus distorted 
harmonics on "i wont go down by myself"
e|-*7-----*7-----------------------------------------------------------------|
B|----*7---------------------------------------------------------------------|
G|---------------------------------------------------------------------------|
D|---------------------------------------------------------------------------|
A|---------------------------------------------------------------------------|
D|---------------------------------------------------------------------------|
end on
e|---------------------------------------------------------------------------|
B|-8-------------------------------------------------------------------------|
G|-7-------------------------------------------------------------------------|
D|-5-------------------------------------------------------------------------|
A|-5-------------------------------------------------------------------------|
D|-5------------------------------------------------------------------------
-|

well i think thats all (that i know of). if you have any questions, comments, or
corrections (and im sure there are many corrections) either put them in the comment
box or e mail me at soutman928@yahoo.com. enjoy
Suggest correction What's this?
You can suggest a correction to this tab. Community and Mods will review your correction and vote to approve or reject it.
comments
print report bad tab
13 comments total. Showing first comments.
0 reply
lprobfreak1 33 wrote on October 27 2004, 12:00 am

I LOVE MY CHEMICAL ROMANCE!!!!!!!!!!!!!!

0 reply
shoot_to_thrill 23 wrote on November 4 2004, 12:00 am

ME TOO!!^ And i agree, You know what they do to guys like us in prison IS the best song on the CD

0 reply
Luke-Rocks 10 wrote on March 7 2005, 12:00 am

I think this a very good tab thanks i have enjoyed it alot

I want to post or [tab]
guest
You may want to rate the tab now too:
select rating
Please do not post tabs as comments. Select "correction" instead!