Oops, an error
Loading. Please wait.

You Know What They Do To Guys Like Us In Prison Bass Tab

version 2
version 2

Whole song

33,720 views 6 this week
3 commentsread comments
1 2 3 4 5
accurate
x 17
add to favorites
launch autoscroll
font size
0
reset
guitar tuner
Autoscroll
slow
fast
+/-
esc
set tempo
stop
Help us to improve Ultimate-Guitar.com Take our survey!
×
Standard Tuning
G, D, A, E
Intro and Verse 1 (after "arms raised high)

G[----------------------------------------------------------------]
D[----------------------------------------------------------------]
A[----------------4-4-4-4-4-4-3-3-1-1-1-1-1-1-1-1-5-5-5-5-5-5-5-5-] x3
E[3-3-3-3-3-3-3-3-------------------------------------------------]

Chorus- x2

G[-----------------------------------------------------------------]
D[-----------------------------------------------------------------]
A[-----------------------3333333333333333--------------------------]
E[3333333333333333-------------------------1111111111111111--------]

G[--------------------]
D[--------------------]
A[5555555555555555----]
E[--------------------]

Verse 2- x2

G[-------------------------------------------------------------------]
D[-------------------------------------------------------------------]
A[------------------------333333333333-------------------------------]
E[3333333333333333--------------------66665555555555555555-----------]

G[--------------------]
D[--------------------]
A[5555555555555555----]
E[--------------------]

Play Chorus- x2

Bridge Part I

G[--------------------------------------------------------------------]
D[--------------------------------------------------------------------]
A[-----------------------33333333333333335555555555555555-------------]
E[3333333333333333----------------------------------------------------]

G[--------------------]
D[--------------------]
A[8888888888888888----]
E[--------------------]

G[---------------------------------------------------------------------]
D[---------------------------------------------------------------------]
A[-------------------------33333333333333335555555555555555------------]
E[3333333333333333-----------------------------------------------------]

Bridge Part II

G[---------------------------------------------------------------------]
D[---------------------------------------------------------------------]
A[--------------------------6666666666666666---------------------------]
E[33333333333333333--------------------------5555555555555555----------]

G[----------------------]
D[----------------------]
A[5555555555555555------]
E[----------------------]

Ending ("Life is but a DREAM!!")

G[--------------------------------------------R-------------------------]
D[--------------------------------------------E----------------44444444-]
A[---------------------4444444444444444-------S----44444444-------------]
E[3-3-3-3-3-3-3-3-----------------------------T-------------------------]

G[----------------------------------------------------------------------]
D[--------------------------------------------------3333333333333333----]
A[-------------------------3333333333333333-----------------------------]
E[3333333333333333------------------------------------------------------]

G[----------------------------------------------------------------------]
D[----------44444444----------------------------------------------------]
A[44444444--------------------------------------------------------------]
E[--------------------------------------------3-3-3-3-3-3-3-3-3-3-3-3-3-]

This is my first tab so plz e-mail me any corrections (MKJOYCE8@aol.com) 
It should be like 99.9% right though!! Thankz! FenderChick89
Suggest correction
What's this?
You can suggest a correction to this tab. Community and Mods will review your correction and vote to approve or reject it.
comments
print report bad tab
3 comments total.
0 reply
boycew02 721 wrote on July 26 2007, 01:30 pm

Almost perfect but the intro goes

G[----------------------------------------------------------------]
D[----------------------------------------------------------------]
A[----------------3-3-3-3-3-3-1-1-0-0-0-0-0-0-0-0-5-5-5-5-5-5-5-5-] x3
E[3-3-3-3-3-3-3-3-------------------------------------------------]

Other than that very good tab. Gj! :)

0 reply
boycew02 721 wrote on July 26 2007, 01:47 pm

Oh and one other thing, there aren't any notes played on the fourth fret of the A string in the entire song. Although they've been tabbed like this they're in fact played on the fifth fret.

Good work still though.

0 reply
IncubusBen 96 wrote on August 15 2015, 01:52 pm

something dodgy here surely...... 22000 views in one week? when it only amassed 7000 in like what, 7 years?

guest
You may want to rate the tab now too:
select rating
Please do not post tabs as comments. Select "correction" instead!