Oops, an error
Loading. Please wait.

You Know What They Do To Guys Like Us In Prison Bass Tab

version 3
version 3

Whole song

798 views 3 this week
1 commentread comment
1 2 3 4 5
please rate
add to favorites
launch autoscroll
font size
0
reset
guitar tuner
Tab Pro tools
  • play this tab
  • loop segment
  • change instrument
  • show fretboard
  • metronome
×
Best way to learn
"You Know What They Do To Guys Like Us In Prison"
Autoscroll
slow
fast
+/-
esc
set tempo
stop
Contributor
You Know What They do To Guys Like Us In Prison

Intro [00:10] [slowish]
G|-------------------------------------------|
D|-------------------------------------------|
A|-------------6666-6-5--------55555555-3-1-0|
E|0-2-3-3333333----5-4-55555555--------------|

G|---------------------------------------|
D|---------------------------------------|
A|---------66666666--------55555555-3-1-0|
E|333333333--------55555555--------------|

G|----------------------------------------|
D|----------------------------------------|
A|--------6666-88-66--------55555555-3-1-0|
E|33333333----------55555555--------------|

Chorus
G|----------------------------------------------|
D|----------------------------------------------|
A|----------------3333333333333333-1111111111111|
E|3333333333333333------------------------------|

G|----------------------------------------------------------------------|
D|----------------------------------------------------------------------|
A|----------------555555555555555----------------55555555555555555-3-1-0|
E|1111111111111111---------------1111111111111111-----------------------|

Verse
G|-------------------------------------------|
D|-------------------------------------------|
A|-----------------3333333333333333-111111111|
E|33333333333333333--------------------------|

G|--------------------------------|
D|--------------------------------|
A|----------------5555555555555555|
E|1111111111111111----------------|

G|----------------------------------------|
D|----------------------------------------|
A|------------33333333333333-1111111111111|
E|-33-33-33-33----------------------------|

G|-------------------------------------|
D|-------------------------------------|
A|----------------555555555555555-3-1-0|
E|1111111111111111---------------------|

Chorus
G|----------------------------------------------|
D|----------------------------------------------|
A|----------------3333333333333333-1111111111111|
E|3333333333333333------------------------------|

G|----------------------------------------------------------------------|
D|----------------------------------------------------------------------|
A|----------------555555555555555----------------55555555555555555-3-1-0|
E|1111111111111111---------------1111111111111111-----------------------|

Bridge [x2]
G|-----------------------------------------------------------------|
D|-----------------------------------------------------------------|
A|---------------------------------5555555555555555----------------|
E|6666666666666666-8888888888888888----------------5555555555555555|

G|--------------------------------------------------|
D|--------------------------------------------------|
A|---------------------------------5555555555555555-|
E|6666666666666666-8888888888888888----------------5|

G|-----------------------------------------------------------------|
D|-----------------------------------------------------------------|
A|-----------------6666666666666666----------------5555555555555555|
E|33333333333333333----------------5555555555555555----------------|

Outro
G|---------------------------------------------------------------------|
D|---------------------------------------------------------------------|
A|3333333333333333-5555555555555555----------------3333333333-111111111|
E|---------------------------------3333333333333333--------------------|

G|---------------------------------------------------------|
D|---------------------------------------------------------|
A|--------------------555555555555555-3-1-0----------------|
E|11111111111111111111----------------------333333333333333|

comments
We did not receive enough feedback on this tab! Please rate:
print report bad tab
1 2 3 4 5
1 comment total.
0 reply
frenchtoast218 wrote on September 7 2009, 12:10 am

nice tab man! :)

I want to post or [tab]
guest
You may want to rate the tab now too:
select rating
Please do not post tabs as comments. Select "correction" instead!