Oops, an error
Loading. Please wait.

You Know What They Do To Guys Like Us In Prison Tab

version 3
version 3

Whole song

38,719 views 66 this week
37 commentsread comments
1 2 3 4 5
x 44
add to favorites
launch autoscroll
font size
0
reset
how to read this tab
guitar tuner
×
Best way to learn
"You Know What They Do To Guys Like Us In Prison"
Autoscroll
slow
fast
+/-
esc
set tempo
stop
Author
Difficulty
  follow
intermediate
(Guitar 1)
(clean, with sustain)
        
[1]
e|---------------------------------------------|
B|-----------------------------------8888-7777-|
G|-33333333-8-8-8-8-8-8--88-88888888-7777-7777-|
D|-55555555-101010101010-88-99999999-8888-7777-|
A|---------------------------------------------|
E|---------------------------------------------|
    "In the middle of a gunfight...."

[1]
e|---------------------------------------------|--|
B|-----------------------------------8888-7777-|--|
G|-33333333-8-8-8-8-8-8--88-88888888-7777-7777-|--|
D|-55555555-101010101010-88-99999999-8888-7777-|--|
A|---------------------------------------------|x3|
E|---------------------------------------------|--|

[2]
e|--------------------------------------------------------------|--|
B|--------------------------------------------------------------|--|
G|-----------------------------|7-7-7-8-7-----------------------|--|
D|-|7-7-7-7/5~--|7-7-7-10-8-7~------------8~-10-8-8-8-8h10p8-7~-|--|
A|--------------------------------------------------------------|x2|
E|--------------------------------------------------------------|--|
    
   "Well they're never gonna get me..."
  
e|---------------------------------------------------------|
B|---------------------------------------------------------|
G|-----------------------------|7-7-7-8-7~-7-8-7-8-7-5-----|
D|-|7-7-7-7/5~--|7-7-7-10-8-7~-------------------------8-7-|
A|---------------------------------------------------------|
E|---------------------------------------------------------|

[1+2]
e|----------------------------------------------------|
B|--------------4444----------------------------------|
G|----------55555555----------7777--|9--11111111-8888-|
D|-55555555-55555555-33333333-------------------------|
A|-55555555-33333333-33333333-5555--|7--9-9-9-9--6666-|
E|-33333333----------11111111-------------------------|

     "Now! But I cant..."
[1+2]
e|--------------------------------------------------------|
B|--------------4444--------------------------------------|
G|----------55555555----------7777--|9--11111111-12121212-|
D|-55555555-55555555-33333333-----------------------------|
A|-55555555-33333333-33333333-5555--|7--9-9-9-9--10101010-|
E|-33333333----------11111111-----------------------------|
 
    "Too much too late..."

[1]
e|--------------------------------------|
B|--------------------------------------|
G|----------555555-33----------77777777-|
D|-55555555-555555-33-33333333-77777777-|
A|-55555555-333333-11-33333333-55555555-|
E|-33333333-----------11111111----------|
   ........ ...... .. ........ ........

[2]     
e|---------------------------------------------------|
B|---------------------------------------------------|
G|-7777---------4*-----------------------------------|
D|------77-8-55----77-8-7777-|1010-8-7-8-55-7-55-4-5-|
A|---------------------------------------------------|
E|---------------------------------------------------|
    
    "They all cheat at cards..."

[1]
e|-------------------------------------------------|
B|-------------------------------------------------|
G|----3----3----3----3-555555-33----------77777777-|
D|----5----5----5----5-555555-33-33333333-77777777-|
A|----5----5----5----5-333333-11-33333333-55555555-|
E|-33-3-33-3-33-3-33-3-----------11111111----------|
   ..   ..   ..   ..   ...... .. ....   

[2]
e|------------------------------------------------|
B|------------------------------------------------|
G|-77-10-8-55-77-8-5555-----------7-8-7-8-7-5-----|
D|----------------------77-8-77-8-------------8-7-|
A|------------------------------------------------|
E|------------------------------------------------|

    "I miss my Mom! will they..."

[1+2]
e|----------------------------------------------------|
B|--------------4444----------------------------------|
G|----------55555555----------7777--|9--11111111-8888-|
D|-55555555-55555555-33333333-------------------------|
A|-55555555-33333333-33333333-5555--|7--9-9-9-9--6666-|
E|-33333333----------11111111-------------------------|

     "Now! But I cant..."
[1+2]
e|--------------------------------------------------------|
B|--------------4444--------------------------------------|
G|----------55555555----------7777--|9--11111111-12121212-|
D|-55555555-55555555-33333333-----------------------------|
A|-55555555-33333333-33333333-5555--|7--9-9-9-9--10101010-|
E|-33333333----------11111111-----------------------------|
 
[1]
e|--------------------------------------|--|----|
B|--------------------------------------|--|----|
G|--------------------------------------|--|----|
D|----------55555555-77777777-----------|--|-5~-|
A|-55555555-33333333-55555555-777777777-|x2|-5~-|
E|-33333333-------------------555555555-|--|-3~-|
   ........ ........ ........ .........
 
[2]
e|--------------------------------------|
B|--------------------------------------|
G|-12~--14-15-12~--14-15-12~--14-12-10~-|
D|--------------------------------------|
A|-10~--12-13-10~--12-13-10~--12-10-8~--|
E|--------------------------------------|
 
e|-----------------------------------------------------------|-----------|
B|-----------------------------------------------------------|-----------|
G|-12-14-15151515151515-17171717171717-14141414-15151515-14~-|-12-15-14~-|
D|-----------------------------------------------------------|-----------|
A|-10-12-13131313131313-15151515151515-12121212-13131313-12~-|-10-13-12~-|
E|-----------------------------------------------------------|-----------|
  
[3]
e|-10-------|--|-11-------|--|-15-------|--|-----|
B|----11----|--|----12----|--|----16----|--|-----|
G|-------10-|--|-------13-|--|-------15-|--|-15~-|
D|----------|--|----------|--|----------|--|-----|
A|----------|x5|----------|x5|----------|x5|-----|
E|----------|--|----------|--|----------|--|-----|

    "To your room...         ...why remember... you?"

[1]
e|-------------------------------------|
B|-------------------------------------|
G|----------88888888----------77777777-|
D|-55555555-88888888-77777777-77777777-|
A|-55555555-66666666-77777777-55555555-|
E|-33333333----------55555555----------|
 
[2]
e|--------------------------------------------------------------------|
B|--------------------------------------------------------------------|
G|-5b(7)r5-----------5b(7)r5-----------5b(7)r5------------------------|
D|---------8-7-h8-5~---------8-7-5-3~----------8-7-5-4~-7-5-8-7-10-8~-|
A|--------------------------------------------------------------------|
E|--------------------------------------------------------------------|
 
[3]
e|--------------------------------------------------------------------|
B|--------------------------------------------------------------------|
G|--------------------------------------------------|3~-2-0-3-2-5--3~-|
D|--------------------------------------------------------------------|
A|--------------------------------------------------------------------|
E|--------------------------------------------------------------------|

[1]
e|-------------------|
B|-------------------|
G|----------88888888-|
D|-55555555-88888888-|
A|-55555555-66666666-|
E|-33333333----------|

[2]
e|-------------------------------------------------------------------------|
B|-------------------------------------------------------------------------|
G|-------------------------------------------------------------------------|
D|-8~~~~~~~--8~~~8h10p8h10p8h10p8-8~~~~---~~~~ feedback ~~~~---------------|
A|-------------------------------------------------------------------------|
E|-------------------------------------------------------------------------|

[3]
e|-------------------------------------------------------8h10p8------------|
B|------------------------------------------------8h10h11------01p10-8h10~-|
G|--------------------7h9h10-7h9h10-7h9h10/9h10h12-------------------------|
D|-8~~-8h10p8h10p8h10------------------------------------------------------|
A|-------------------------------------------------------------------------|
E|-------------------------------------------------------------------------|

[1]
e|-------------------|
B|-------------------|
G|----------77777777-|
D|-77777777-77777777-|
A|-77777777-55555555-|
E|-55555555----------|

[2]
e|-------------------------------------------------------------------------|
B|-------------------------------------------------------------------------|
G|-------------------------------------------------------------------------|
D|-8~~~~~~~---------~~~~---8~~~~ ----------------------------|17~~~~-16~~~~|
A|-------------------------------------------------------------------------|
E|-------------------------------------------------------------------------|

[3]
e|---13---12---10------------------------------|10-12-13-15-17-18-19-21-21^|
B|-10---10---10--10-13-10-11-10-11-10--------------------------------------|
G|-----------------------------------12h14-10~-----------------------------|
D|-------------------------------------------------------------------------|
A|-------------------------------------------------------------------------|
E|-------------------------------------------------------------------------|

[1]                  |>> Distortion
e|-----------------|--------------------------------------------------|
B|-----------------|--------------------------------------------------|
G|-3-3-3-3-3-3-3-3-|-555-555-555--------------7777--|9--11111111-8888-|
D|-5-5-5-5-5-5-5-5-|-555-555-555--------------------------------------|
A|-----------------|-333-333-333--------------5555--|7--9-9-9-9--6666-|
E|-----------------|--------------------------------------------------|

[2]
e|-----------------|--------------------------------------------------|
B|-----------------|-555-555-555-----------4*-------------------------|
G|-----------------|-555-555-555--4*----------7777--|9--11111111-8888-|
D|-----------------|-333-333-333--------5*----------------------------|
A|-----------------|--------------------------5555--|7--9-9-9-9--6666-|
E|-----------------|--------------------------------------------------|

   "Life is but a dream..."

[1]
e|--------------------------------------------------------|
B|--------------4444--------------------------------------|
G|----------55555555----------7777--|9--11111111-12121212-|
D|-55555555-55555555-33333333-----------------------------|
A|-55555555-33333333-33333333-5555--|7--9-9-9-9--10101010-|
E|-33333333----------11111111-----------------------------|

[2]
e|--------------------------------------------------------|
B|-888/1012-888/1012-666/1012-----------------------------|
G|----------------------------7777--|9--11111111-12121212-|
D|-555/7-8--555/7-8--333/7-8------------------------------|
A|----------------------------5555--|7--9-9-9-9--10101010-|
E|--------------------------------------------------------|

    "Now, now now now...."

[1]
e|----------------------------|
B|----------------------------|
G|----------------------------|
D|---5----5----5----5-------5-|
A|---5----5----5----5-------5-|
E|-333--333--333--333--3333-3-|

[2]
e|----------------------------|
B|----------------------------|
G|-9/12-9/12-9/12-9/12-----12-|
D|----------------------------|
A|-7/10-7/10-7/10-7/10-----10-|
E|----------------------------|


************************************

| x  Dead note
| h  Hammer-on
| p  Pull-off
| /  Slide up
| ~  Vibrato
| *  Natural harmonic
| >  Accented note

************************************
Suggest correction
comments
print report bad tab
37 comments total. Showing first comments.
-1 reply
MCRrocks 35 May 21, 2005 08:00 PM

great tab!!

-1 reply
mcr_01_fan 697 Jun 01, 2005 08:00 PM

nice tab dude/dudette! peace!

+1 reply
Andrew9 31 Jun 01, 2005 08:00 PM

seems like a great tab, I havnt been able to play it yet though I'm im pretty sure that at one part of the solo, both guitars are doing lead (rhythm stops playing chords and does some really quick alternate picking) you can hear this if you listen to the song with only the left earphone, then with only the right

guest
You may want to rate the tab now too:
select rating
Wanna post a correction for this tab? Suggest correction