Oops, an error
Loading. Please wait.

You Know What They Do To Guys Like Us In Prison Tab

version 4
version 4

Solo

Whole song

23,945 views 117 this week
2 commentsread comments
1 2 3 4 5
accurate
x 8
add to favorites
launch autoscroll
font size
0
reset
how to read this tab
guitar tuner
Tab Pro tools
  • play this tab
  • loop segment
  • change instrument
  • show fretboard
  • metronome
Autoscroll
slow
fast
+/-
esc
set tempo
stop
Contributor
Difficulty
intermediate
Song: You Know What They Do To Guys Like Us In Prison
Band: My Chemical Romance
Album: Three Cheers For Sweet Revenge

Gtr I: Ray Toro: Standard Tuning (e,B,G,D,A,E)
Gtr II: Frank Iero: Standard Tuning (e,B,G,D,A,E)
Gtr III: Ray Toro (Overdubbed Gtr): Standard Tuning (e,B,G,D,A,E)

Intro:

Gtr I

e:|---------------------------------------|
B:|---------------------------------------|
G:|-3-3-3-3-3-3-3-3--8--8--8--8--8--8-8-8-|
D:|-5-5-5-5-5-5-5-5-10-10-10-10-10-10-9-9-|
A:|---------------------------------------|
E:|---------------------------------------|

e:|---------------------------------|
B:|-------------------------3-3-3-3-|
G:|-7-7-7-7-7-7-7-7-7-7-7-7-2-2-2-2-|
D:|-8-8-8-8-8-8-8-8-7-7-7-7---------|
A:|---------------------------------|
E:|---------------------------------|

Gtr II

e:|--------|
B:|-<5>~~~-|
G:|--------|
D:|--------|
A:|--------|
E:|--------|

Verse I:

Gtr I Just plays intro

Gtr II

e:|--------------------------------------|
B:|--------------------------------------|
G:|------------------5-------7-7-7-8-7^r-|
D:|-7-7-7-7p5~-7-7-7---8^r-7-------------|
A:|--------------------------------------|
E:|--------------------------------------|

e:|----------------|
B:|----------------|
G:|----------------|
D:|-7h8~-8-10-8-7~-|
A:|----------------|
E:|----------------|

e:|---------------------------------------------------------|
B:|---------------------------------------------------------|
G:|------------------5-------7-7-7-8-7^r~-7h8p7h8p7h8p7-7/5-|
D:|-7-7-7-7p5~-7-7-7---8^r-7--------------------------------|
A:|---------------------------------------------------------|
E:|---------------------------------------------------------|

e:|-------|
B:|-------|
G:|-------|
D:|-8-7-5-|
A:|-------|
E:|-------|

Chorus:

Gtr I (x2)

e:|-----------------------------------------------------------------|
B:|-----------------------------------------------------------------|
G:|---------------------------------5-5-5-5-5-5-5-5-5-5-5-5-5-5-5-5-|
D:|-5-5-5-5-5-5-5-5-5-5-5-5-5-5-5-5-5-5-5-5-5-5-5-5-5-5-5-5-5-5-5-5-|
A:|-5-5-5-5-5-5-5-5-5-5-5-5-5-5-5-5-3-3-3-3-3-3-3-3-3-3-3-3-3-3-3-3-|
E:|-3-3-3-3-3-3-3-3-3-3-3-3-3-3-3-3---------------------------------|

e:|-------------------------------------------------------------------|
B:|-------------------------------------------------------------------|
G:|---------------------------------7-7-7-7-7-7/8-8/11111111/12121212-|
D:|-3-3-3-3-3-3-3-3-3-3-3-3-3-3-3-3-x-x-x-x-x-x-x-x--x-x-x-x--x-x-x-x-|
A:|-3-3-3-3-3-3-3-3-3-3-3-3-3-3-3-3-5-5-5-5-5-5/6-6/-9-9-9-9/10101010-|
E:|-1-1-1-1-1-1-1-1-1-1-1-1-1-1-1-1-----------------------------------|

Gtr II

e:|-----------------------------------------------------------------|
B:|-----------------------------------------------------------------|
G:|---------------------------------5-5-5-5-5-5-5-5-5-5-5-5-5-5-5-5-|
D:|-5-5-5-5-5-5-5-5-5-5-5-5-5-5-5-5-5-5-5-5-5-5-5-5-5-5-5-5-5-5-5-5-|
A:|-5-5-5-5-5-5-5-5-5-5-5-5-5-5-5-5-3-3-3-3-3-3-3-3-3-3-3-3-3-3-3-3-|
E:|-3-3-3-3-3-3-3-3-3-3-3-3-3-3-3-3---------------------------------|

e:|-----------------------------------------------------------------|
B:|-----------------------------------------------------------------|
G:|---------------------------------7-7-7-7-7-7/8-8/7-7/5-5/3-3-3-3-|
D:|-3-3-3-3-3-3-3-3-3-3-3-3-3-3-3-3-x-x-x-x-x-x-x-x-x-x-x-x-x-x-x-x-|
A:|-3-3-3-3-3-3-3-3-3-3-3-3-3-3-3-3-5-5-5-5-5-5/6-6/5-5/3-3/1-1-1-1-|
E:|-1-1-1-1-1-1-1-1-1-1-1-1-1-1-1-1---------------------------------|

Verse II:

Gtr I

e:|-----------------------------------------------------------------|
B:|-----------------------------------------------------------------|
G:|-----------------------------------------------------------------|
D:|---------------------------------5-5-5-5-5-5-5-5-3-3-3-3-3-3-3-3-|
A:|-5-5-5-5-5-5-5-5-5-5-5-5-5-5-5-5-3-3-3-3-3-3-3-3-1-1-1-1-1-1-1-1-|
E:|-3-3-3-3-3-3-3-3-3-3-3-3-3-3-3-3---------------------------------|
PM  * * * * * * * * * * * * * * * * * * * * * * * * * * * * * * * *

e:|-----------------------------------------------------------------|
B:|-----------------------------------------------------------------|
G:|-----------------------------------------------------------------|
D:|-2-2-2-2-2-2-2-2-2-2-2-2-2-2-2-2-7-7-7-7-7-7-7-7-7-7-7-7-7-7-7-7-|
A:|-0-0-0-0-0-0-0-0-0-0-0-0-0-0-0-0-5-5-5-5-5-5-5-5-5-5-5-5-5-5-5-5-|
E:|-----------------------------------------------------------------|
PM  * * * * * * * * * * * * * * * * * * * * * * * * * * * * * * * *

e:|-------------------------------------------------------------|
B:|-------------------------------------------------------------|
G:|-------------------------------------------------------------|
D:|-----5-----5-----5-----5-----5-5-5-5-5-5-5-5-3-3-3-3-3-3-3-3-|
A:|-5-5-5-5-5-5-5-5-5-5-5-5-5-5-3-3-3-3-3-3-3-3-1-1-1-1-1-1-1-1-|
E:|-3-3-3-3-3-3-3-3-3-3-3-3-3-3---------------------------------|
PM  * *   * *   * *   * *   * * * * * * * * * * * * * * * * * * 

e:|-----------------------------------------------------------------|
B:|-----------------------------------------------------------------|
G:|-----------------------------------------------------------------|
D:|-2-2-2-2-2-2-2-2-2-2-2-2-2-2-2-2-7-7-7-7-7-7-7-7-7-7-7-7-7-7-7-7-|
A:|-0-0-0-0-0-0-0-0-0-0-0-0-0-0-0-0-5-5-5-5-5-5-5-5-5-5-5-5-5-5-5-5-|
E:|-----------------------------------------------------------------|
PM  * * * * * * * * * * * * * * * * * * * * * * * * 

Gtr II

Gtr II (Tremolo Pick these notes) 

e:|-----------------------------------------|
B:|-----------------------------------------|
G:|-----------------------------------------|
D:|-12-8-10-7--8-5--7--8-7-10-8-7-8-7-5-4-5-|
A:|-----------------------------------------|
E:|-----------------------------------------|

                                (Stop Tremelo picking here)
e:|----------------------------|-------------------|
B:|----------------------------|-------------------|
G:|-7-8-7-10-8-7-7h8p7/5-------|-7h8p7h8p7/5-------|
D:|----------------------7-8-7-|-------------8-7-5-|
A:|----------------------------|-------------------|
E:|----------------------------|-------------------|

Repeat Chorus (x2)

Bridge Pt I:

Gtr I

e:|---------------------------------------|
B:|---------------------------------------|
G:|-12~--14-15--12~--14-15--12~--14-12-10-|
D:|-x----x--x---x----x--x---x----x--x--x--|
A:|-10---12-13--10~--12-13--10~--12-10-8--|
E:|---------------------------------------|

Gtr II

e:|-----------------------------------------------------------------|
B:|-----------------------------------------------------------------|
G:|-----------------------------------------------------------------|
D:|---------------------------------3-3-3-3-3-3-3-3-3-3-3-3-3-3-3-3-|
A:|-5-5-5-5-5-5-5-5-5-5-5-5-5-5-5-5-1-1-1-1-1-1-1-1-1-1-1-1-1-1-1-1-|
E:|-3-3-3-3-3-3-3-3-3-3-3-3-3-3-3-3---------------------------------|
PM  * * * * * * * * * * * * * * * * * * * * * * * * * * * * * * * *

e:|-----------------------------------------------------------------|
B:|-----------------------------------------------------------------|
G:|-----------------------------------------------------------------|
D:|-7-7-7-7-7-7-7-7-7-7-7-7-7-7-7-7-2-2-2-2-2-2-2-2-2-2-2-2-2-2-2-2-|
A:|-5-5-5-5-5-5-5-5-5-5-5-5-5-5-5-5-0-0-0-0-0-0-0-0-0-0-0-0-0-0-0-0-|
E:|-----------------------------------------------------------------|
PM  * * * * * * * * * * * * * * * * * * * * * * * * * * * * * * * *

Bridge Pt II:

Gtr I

e:|-------------------|
B:|-15-----15----15---|
G:|---15-----15----15-|
D:|-----15-----15-----| (x2)
A:|-------------------|
E:|-------------------|

e:|---------------------|
B:|-16-----16----16-----|
G:|---15-----15----15---|
D:|-----15-----15----15-| (x2)
A:|---------------------|
E:|---------------------|

e:|-------------------------------------|
B:|-15-----15----15---13----13-----13---|
G:|---15-----15----15---15----15-----15-|
D:|-----15-----15---------15----15------|
A:|-------------------------------------|
E:|-------------------------------------|

Gtr II (repeat bridge Pt I)

Gtr III

e:|-------------------------------------------------------------------|
B:|-------------------------------------------------------------------|
G:|-15151515151515151515151515151515-17171717171717171717171717171717-|
D:|-x-x-x-x-x-x-x-x-x-x-x-x-x-x-x-x--x-x-x-x-x-x-x-x-x-x-x-x-x-x-x-x--|
A:|-13131313131313131313131313131313-15151515151515151515151515151515-|
E:|-------------------------------------------------------------------|

e:|-----------------------------------|
B:|-----------------------------------|
G:|-1515151515151515-1414141414141414-|
D:|-x-x-x-x-x-x-x-x--x-x-x-x-x-x-x-x--|
A:|-1313131313131313-1212121212121212-|
E:|-----------------------------------|

End bridge on:

Gtr's I & III

e:|-------------|
B:|-------------|
G:|-15~-17~-15~-|
D:|-x---x---x---|
A:|-13~-15~-13~-|
E:|-------------|

Gtr II

e:|----|
B:|----|
G:|----|
D:|-5~-|
A:|-5~-|
E:|-3~-|

Solo:

(I don't know Gtr II's parts here, so I've tabbed all the lead as one guitar)

Gtr I (Use Wah)

e:|------------------------------------|
B:|-/16~-------------------------------|
G:|-------7-5-------0~--5^7r5----------|
D:|-----------8-7-8-----------8-7-5-3~-|
A:|------------------------------------|
E:|------------------------------------|

e:|--------------------------------|
B:|--------------------------------|
G:|-6^7r6--------------------------|
D:|-------8-7-5-[4]~~-6p4-5p7-7/8~-|
A:|--------------------------------|
E:|--------------------------------|

e:|-----------------------------------------------12p10p8---------|
B:|---------------------------------------8h10h11---------11p10p8-|
G:|-----------------7h9h10-7h9h10-9h10h11-------------------------|
D:|-8h10h11-8h10h11-----------------------------------------------|
A:|---------------------------------------------------------------|
E:|---------------------------------------------------------------|

e:|----13----12----10----------------------|
B:|-10----10----10-------------------------|
G:|-------------------12h14-12-12^14r12-10-|
D:|----------------------------------------|
A:|----------------------------------------|
E:|----------------------------------------|

e:|----------------171718182020-21^21^21^-|
B:|-1616-1818-2020------------------------|
G:|---------------------------------------|
D:|---------------------------------------|
A:|---------------------------------------|
E:|---------------------------------------|

Gtr II (x2)

e:|-----------------------------------------------------------------|
B:|-----------------------------------------------------------------|
G:|---------------------------------8-8-8-8-8-8-8-8-8-8-8-8-8-8-8-8-|
D:|-5-5-5-5-5-5-5-5-5-5-5-5-5-5-5-5-8-8-8-8-8-8-8-8-8-8-8-8-8-8-8-8-|
A:|-5-5-5-5-5-5-5-5-5-5-5-5-5-5-5-5-6-6-6-6-6-6-6-6-6-6-6-6-6-6-6-6-|
E:|-3-3-3-3-3-3-3-3-3-3-3-3-3-3-3-3---------------------------------|

e:|-----------------------------------------------------------------|
B:|-----------------------------------------------------------------|
G:|---------------------------------7-7-7-7-7-7-7-7-7-7-7-7-7-7-7-7-|
D:|-7-7-7-7-7-7-7-7-7-7-7-7-7-7-7-7-7-7-7-7-7-7-7-7-7-7-7-7-7-7-7-7-|
A:|-7-7-7-7-7-7-7-7-7-7-7-7-7-7-7-7-5-5-5-5-5-5-5-5-5-5-5-5-5-5-5-5-|
E:|-5-5-5-5-5-5-5-5-5-5-5-5-5-5-5-5---------------------------------|

After Solo:

Gtr I 
e:|-----------------|
B:|-----------------|
G:|-3-3-3-3-3-3-3-3-|
D:|-5-5-5-5-5-5-5-5-|
A:|-----------------|
E:|-----------------|

Both Gtr's:

e:|---------------------------------|
B:|---------------------------------|
G:|-5-5-5-5-5-5-5-5-5-5-5-5-5-5-5-5-|
D:|-5-5-5-5-5-5-5-5-5-5-5-5-5-5-5-5-|
A:|-3-3-3-3-3-3-3-3-3-3-3-3-3-3-3-3-|
E:|---------------------------------|

When he says (I won't go down)

Gtr I

e:|-------------<5>~~-|-----------------------------------|
B:|-<5>~~-------------|-----------------------------------|
G:|-------------------|-7-7-7-7-7-7/8-8/11111111/12121212-|
D:|-------<4>~~-------|-x-x-x-x-x-x-x-x--x-x-x-x--x-x-x-x-|
A:|-------------------|-5-5-5-5-5-5/6-6/-9-9-9-9/10101010-|
E:|-------------------|-----------------------------------|

Gtr II

e:|-------------------|---------------------------------|
B:|-------------------|---------------------------------|
G:|-------------------|-7-7-7-7-7-7/8-8/7-7/5-5/3-3-3-3-|
D:|-------------------|-x-x-x-x-x-x-x-x-x-x-x-x-x-x-x-x-|
A:|-------------------|-5-5-5-5-5-5/6-6/5-5/3-3/1-1-1-1-|
E:|-------------------|---------------------------------|

Outro:

Gtr I

e:|-----------------------------------------------------------------------|
B:|-----------------------------------------------------------------------|
G:|-1212121212121212-14141414-15151515-1212121212121212-14141414-15151515-|
D:|-x-x-x-x-x-x-x-x--x-x-x-x--x-x-x-x--x-x-x-x-x-x-x-x--x-x-x-x--x-x-x-x--|
A:|-1010101010101010-12121212-13131313-1010101010101010-12121212-13131313-|
E:|-----------------------------------------------------------------------|

e:|----------------------------------------------------------------------|
B:|----------------------------------------------------------------------|
G:|-1010101010101010-14141414-15151515-7-7-7-7-7-7-7-7-14141414-15151515-|
D:|-x-x-x-x-x-x-x-x--x-x-x-x--x-x-x-x--x-x-x-x-x-x-x-x-x-x-x-x--x-x-x-x--|
A:|-8-8-8-8-8-8-8-8--12121212-13131313-5-5-5-5-5-5-5-5-12121212-13131313-|
E:|----------------------------------------------------------------------|

Gtr II repeats chorus

Gtr I

e:|---------------------------------------------------|
B:|---------------------------------------------------|
G:|---------------------------------------------------|
D:|-------------------------------------------------5-|
A:|-------------------------------------------------5-|
E:|-3/15\3--3/15\3--3/15\3--3/15\3--3/15\3--3/15\13-3-|

Gtr II

e:|-----------------------|
B:|-----------------------|
G:|-----------------------|
D:|---5---5---5---5---5-5-|
A:|-x-5-x-5-x-5-x-5-x-5-5-|
E:|-x-3-x-3-x-3-x-3-x-3-3-|
comments
print report bad tab
2 comments total.
0 reply
VintageGr1970 wrote on September 27 2005, 08:52 pm

hahah hey!! this is actually pretty damn good :) I'd say about 4 1/2 but we can't give 1/2's so I'll just round it up to 5*****

0 reply
Mathamology wrote on September 28 2005, 01:20 am

hmmm... the rhythm is wrong for the first verse... I'm not sure about the solo... other small parts seem to sound wrong... Good lead in the verses though

I want to post or [tab]
guest
You may want to rate the tab now too:
select rating
Please do not post tabs as comments. Select "correction" instead!