Oops, an error
Loading. Please wait.

Zero Percent Bass Tab

version 1
version 1

Whole song

1,917 views 1 this week
no commentswrite comment
1 2 3 4 5
1 last vote to show rating
add to favorites
launch autoscroll
font size
0
reset
guitar tuner
Autoscroll
slow
fast
+/-
esc
set tempo
stop
Help us to improve Ultimate-Guitar.com Take our survey!
×
Author
Difficulty
novice
Band:My Chemical Romance
Song:Zero Percent
Tuning:Standard-EADG
Bassist:Mikey Way 

Intro (2x)
G--------------------|
D--------------------|
A--------------------|
E-1(8X)-4(8X)-0(16X)-|

Verse (2x)
G--------------------|
D--------------------|
A--------------------|
E-1(8X)-4(8X)-0(16X)-|

Chorus (2x)
G----------------------------------|
D----------------------------------|
A--------3(16x)-4(16x)-------6(8x)-|
E-4(16x)----------------4(8x)------|

Verse
G--------------------------|
D--------------------------|
A--------------------------|
E-1(8x)-4(8x)-0(16x)0(16x)-|

Chorus (2x)
G----------------------------------|
D----------------------------------|
A-------3(16x)-4(16x)--------6(8x)-|
E-4(16X)---------------4(8x)-------|

Bridge
G---------------------------------------------|
D---------------------------------------------|
A-4(16x)-6(16x)-8(16x)-666-8(16x)-4(8x)-6(8x)-|
E---------------------------------------------|

Chorus (2x)
G--------------------------------|
D--------------------------------|
A-------3(16x)-4(16x)------6(8x)-|
E-4(16x)--------------4(8x)------|

Outro[Those are 1's not 11's :)]
G-------------------------------------|
D-------------------------------------|
A-------------------------------------|
E-11-11-11-1-1140--11-11-11-1-1140-11-|
Suggest correction
Give kudos to tab author, rate the tab!
1 2 3 4 5
comments
print report bad tab
guest
You may want to rate the tab now too:
select rating
Wanna post a correction for this tab? Suggest correction