Oops, an error
Loading. Please wait.

Zero Percent Tab

version 2
version 2

Whole song

1,055 views 6 this week
no commentswrite comment
1 2 3 4 5
excellent!
x 3
add to favorites
launch autoscroll
font size
0
reset
how to read this tab
guitar tuner
Autoscroll
slow
fast
+/-
esc
set tempo
stop
Help us to improve Ultimate-Guitar.com Take our survey!
×
Author
Guitar 1: Frank Iero (rythm)
Guitar 2: Ray Toro (lead)
Guitar 3: Ray Toro overdubbed (lead)

* Palm Mute
P Pickslide
/ Slide down
\ Slide up
X Muted
b Bend
br Bend and return
~ Let note ring
 _  _
/    \
| TO | Play music from bracket to bracket
\_  _/

Intro

Guitar 1 + 2

e|----------------------------------|
B|----------------------------------|
G|----------------------------------|
D|-33333333666666662222222222222222-|
A|-33333333666666662222222222222222-|
E|-11111111444444440000000000000000-| x2

Verse 1

Guitar 1 + 2

e|---------------------------------|
B|---------------------------------|
G|---------------------------------|
D|-33333333666666662222222222222222|
A|-33333333666666662222222222222222|
E|-11111111444444440000000000000000| x2
   ********************************

e|-----------------------------------------------------------------|
B|-----------------------------------------------------------------|
G|-----------------------------------------------------------------|
D|-33333333666666662222222222222222333333336666666622222222222222--|
A|-33333333666666662222222222222222333333336666666622222222222222--|
E|-11111111444444440000000000000000111111114444444400000000000000--|

Chorus

Guitar 1

e|-----------------------------------------|
B|-----------------------------------------|
G|----------5--------6----------------8----|
D|-6--------5 x16----6 x16----6-------8 x8-|
A|-6 x16----3--------4--------6 x8----6----|
E|-4--------------------------4------------| x2

Guitar 2

e|---------------------------------------------------------------|
B|-----------13--------14--------13-------14-1313---111111111111-|
G|-13--------X  x16----X  x16----X  x5----X- X X ---X X X X X X -|
D|-X  x16----10--------11--------10-------11-1010---8 8 8 8 8 8 -|
A|-11------------------------------------------------------------|
E|---------------------------------------------------------------|

  ---------------------------------------------------------------|
  -----------13--------18--------13-------14-1313---111111111111-|
  -----------X  x16----X  x16----X  x5----X- X X ---X X X X X X -|
  -13--------10--------15--------10-------11-1010---8 8 8 8 8 8 -|
  -X  x16--------------------------------------------------------|
  -11------------------------------------------------------------|

Chorus to verse 2

Guitar 1

e|----------|
B|----------|
G|----------|
D|-33333333-|
A|-33333333-|
E|-11111111-|
   ********

Guitar 2

e|------16---|
B|-----18-18-|
G|-----------|
D|-----------|
A|-----------|
E|-----------|

Verse 2

Guitar 1

Same as verse 1

Guitar 2 (play at 1:17)

e|(-----------------------------------)--------|
B|(----------11-------9-------111211X-)-9-X-10-|
G|(-10-------X  x8----X x7----X X X X-)-X-X-X--|
D|(-X  x8----8--------6-------8 9 8 X-)-6-X-8--|
A|(-8---------------------------------)--------|
E|(-----------------------------------)--------|

e|   _  _ ---------|
B|  /    \-9111213-|
G|  | TO |-XX X X--|
D|  \_  _/-68 9 10-|
A|        ---------|
E|        ---------|

Chorus

Bridge

Guitar 1

e|------------------------------------------------------------|
B|------------------------------------------------------------|
G|-6--------8--------10-----8-------6--------8-------9----10/-|
D|-6 x16----8 x16----10 x28 8 x4----6 x16----8 x8----9 x8-10/-|
A|-4--------6--------8------6-------4--------6-------7----8/--|
E|------------------------------------------------------------|

Guitar 2

e|------------------------------------------------------------------------|
B|14--------16--------18--------16X-18--------16X-14--------16------17----|
G|X  x16----X  x16----X  x13----X-X-X  x13----X X-X  x16----X x8----X-----|  x8
D|11--------13--------15--------13X-15--------13X-11--------13------14----|
A|------------------------------------------------------------------------|
E|------------------------------------------------------------------------|

  -----|
  -18/-|
  -X/ -|
  -15/-|
  -----|
  -----|

Guitar 3

e|--16--------16--------16--------16-----------------16--------16--------16---|
B|-18-18-----18-18-----18-18-----18-18--------------18-18-----18-18-----18-18-|
G|------------------------------------15b17r15-13~----------------------------|
B|----------------------------------------------------------------------------|
A|----------------------------------------------------------------------------|
E|----------------------------------------------------------------------------|

  ------16-------|
  -----18-18-18/-|
  ---------------|
  ---------------|
  ---------------|
  ---------------|

Gap (2:06 to 2:12)

Chorus

Ending

Guitar 1

e|------------------------------------------|
B|------------------------------------------|
G|------------------------------------------|
D|-33--33--33--3362~--33--33--33--3362~--33-|
A|-33--33--33--3362~--33--33--33--3362~--33-|
E|-11--11--11--1140~--11--11--11--1140~--11-|

Guitar 2

e|-----------------------------------------    --------|
B|-----------------------------------------    --------|
G|-15b17--15b17--15b17--15b17-15-13-15-13~- x2 -10-10/-|
D|-----------------------------------------    --------|
A|-----------------------------------------    --------|
E|-----------------------------------------    --------|

Hope you liked it @;)
Suggest correction
Give kudos to tab author, rate the tab!
1 2 3 4 5
comments
print report bad tab
guest
You may want to rate the tab now too:
select rating
Please do not post tabs as comments. Select "correction" instead!