Oops, an error
Loading. Please wait.

Zero Percent Bass Tab

version 3
version 3

Whole song

321 views 1 this week
no commentswrite comment
1 2 3 4 5
3 more votes to show rating
add to favorites
launch autoscroll
font size
0
reset
guitar tuner
Autoscroll
slow
fast
+/-
esc
set tempo
stop
Help us to improve Ultimate-Guitar.com Take our survey!
×
Author
Difficulty
Someone requested tabs for this song on my youtube so I'm posting them here.
I'm really surprised that there are two other bass tabs for this song already up.
The other 2 tabs were actually pretty good but i found a few flaws so im posting my 
version here :p
Pretty easy song overall, standard tuning.

Check out my bass cover of this song!

http://www.youtube.com/watch?v=-1S4bHjvoxs

Check out my channel for more bass covers!

http://www.youtube.com/user/chrisistheazn

Intro

Bass comes in at 0:10

G|--------------------------------------------------------------------|
D|--------------------------------------------------------------------|
A|--------------------------------------------------------------------|
E|-1-1-1-1-1-1-1-1-4-4-4-4-4-4-4-4-0-0-0-0-0-0-0-0-0-0-0-0-0-0-0-0----|

G|--------------------------------------------------------------------|
D|--------------------------------------------------------------------|
A|--------------------------------------------------------------------|
E|-1-1-1-1-1-1-1-1-4-4-4-4-4-4-4-4-0-0-8-8-0-0-8-8-0-0-8-8-0-0-8-8----|

Verse 1

Bass comes in at 0:32

G|--------------------------------------------------------------------|
D|--------------------------------------------------------------------|
A|--------------------------------------------------------------------|
E|-1-1-1-1-1-1-1-1-4-4-4-4-4-4-4-4-0-0-0-0-0-0-0-0-0-0-0-0-0-0-0-0----|

G|--------------------------------------------------------------------|
D|--------------------------------------------------------------------|
A|--------------------------------------------------------------------|
E|-1-1-1-1-1-1-1-1-4-4-4-4-4-4-4-4-0-0-0-0-0-0-0-0-0-0-0-0------------|

Chorus 1

G|--------------------------------------------------------------------|
D|--------------------------------------------------------------------|
A|--------------------------------------------------------------------|
E|-4-4-4-4-4-4-4-4-4-4-4-4-4-4-4-4-8-8-8-8-8-8-8-8-8-8-8-8-8-8-8-8----|

G|--------------------------------------------------------------------|
D|--------------------------------------------------------------------|
A|-------------------------------------------------6-6-6-6-6-6-6-6----|
E|-9-9-9-9-9-9-9-9-9-9-9-9-9-9-9-9-4-4-4-4-4-4-4-4--------------------|

G|--------------------------------------------------------------------|
D|--------------------------------------------------------------------|
A|--------------------------------------------------------------------|
E|-4-4-4-4-4-4-4-4-4-4-4-4-4-4-4-4-8-8-8-8-8-8-8-8-8-8-8-8-8-8-8-8----|

G|--------------------------------------------------------------------|
D|--------------------------------------------------------------------|
A|-------------------------------------------------6-6-6-6-6-6-6-6----|
E|-1-1-1-1-1-1-1-1-1-1-1-1-1-1-1-1-9-9-9-9-9-9-9-9--------------------|

Verse 2

Bass comes in at 1:16

G|--------------------------------------------------------------------|
D|--------------------------------------------------------------------|
A|--------------------------------------------------------------------|
E|-1-1-1-1-1-1-1-1-4-4-4-4-4-4-4-4-0-0-0-0-0-0-0-0-0-0-0-0-0-0-0-0----|

G|--------------------------------------------------------------------|
D|--------------------------------------------------------------------|
A|--------------------------------------------------------------------|
E|-1-1-1-1-1-1-1-1-4-4-4-4-4-4-4-4-0-0-0-0-0-0-0-0--------------------|

Chorus 2

G|--------------------------------------------------------------------|
D|--------------------------------------------------------------------|
A|--------------------------------------------------------------------|
E|-4-4-4-4-4-4-4-4-4-4-4-4-4-4-4-4-8-8-8-8-8-8-8-8-8-8-8-8-8-8-8-8----|

G|--------------------------------------------------------------------|
D|--------------------------------------------------------------------|
A|-------------------------------------------------6-6-6-6-6-6-6-6----|
E|-9-9-9-9-9-9-9-9-9-9-9-9-9-9-9-9-4-4-4-4-4-4-4-4--------------------|

G|--------------------------------------------------------------------|
D|--------------------------------------------------------------------|
A|--------------------------------------------------------------------|
E|-4-4-4-4-4-4-4-4-4-4-4-4-4-4-4-4-8-8-8-8-8-8-8-8-8-8-8-8-8-8-8-8----|

G|--------------------------------------------------------------------|
D|--------------------------------------------------------------------|
A|-------------------------------------------------6-6-6-6-6-6-6-6----|
E|-1-1-1-1-1-1-1-1-1-1-1-1-1-1-1-1-9-9-9-9-9-9-9-9--------------------|

Bridge

G|--------------------------------------------------------------------|
D|--------------------------------------------------------------------|
A|-4-4-4-4-4-4-4-4-4-4-4-4-4-4-4-4-6-6-6-6-6-6-6-6-6-6-6-6-6-6-6-6----|
E|--------------------------------------------------------------------|

G|--------------------------------------------------------------------|
D|--------------------------------------------------------------------|
A|-8-8-8-8-8-8-8-8-8-8-8-8-8-6-6-6-8-8-8-8-8-8-8-8-8-8-8-8-8-6-6-6----|
E|--------------------------------------------------------------------|

G|--------------------------------------------------------------------|
D|--------------------------------------------------------------------|
A|-4-4-4-4-4-4-4-4-4-4-4-4-4-4-4-4-6-6-6-6-6-6-6-6-7-7-7-7-7-7-7-7----|
E|--------------------------------------------------------------------|

Chorus 3

G|---------------------------------------------------------------------------|
D|---------------------------------------------------------------------------|
A|---------------------------------------------------------------------------|
E|-4-4-4-4-4-4-4-4-4-4-4-4-4-4-4-4-8-8-8-8-8-8-8-8-8-8-8-8-8-8-8-8-----------|

G|---------------------------------------------------------------------------|
D|---------------------------------------------------------------------------|
A|-------------------------------------------------6-6-6-6-6-6-6-6-----------|
E|-9-9-9-9-9-9-9-9-9-9-9-9-9-9-9-9-4-4-4-4-4-4-4-4---------------------------|

G|---------------------------------------------------------------------------|
D|---------------------------------------------------------------------------|
A|---------------------------------7-7-7-7-7-7-7-7-8-8-8-8-10-10-10-10-------|
E|-4-4-4-4-4-4-4-4-4-4-4-4-4-4-4-4-------------------------------------------|

G|---------------------------------------------------------------------------|
D|---------------------------------------------------------------------------|
A|-11-11-11-11-11-11-11-10-8-8-8-8-6-6-6-6-----------------6-6-6-6-6-6-6-6---|
E|-----------------------------------------9-9-9-9-9-9-9-9-------------------|

Outro

G|--------------------------------------------------------------------|
D|--------------------------------------------------------------------|
A|-------------------------------------1------------------------------|
E|-1-1-----1-1-----1-1-----1-1-----1-41-4-----------------------------|

G|--------------------------------------------------------------------|
D|--------------------------------------------------------------------|
A|-------------------------------------1------------------------------|
E|-1-1/13--1-1/13--1-1/13--1-1/13--1-41-4--1-1------------------------|


| /  slide up
| \  slide down
| h  hammer-on
| p  pull-off
| ~  vibrato
| +  harmonic
| x  Mute note
Suggest correction
Give kudos to tab author, rate the tab!
1 2 3 4 5
comments
print report bad tab
guest
You may want to rate the tab now too:
select rating
Wanna post a correction for this tab? Suggest correction