Oops, an error
Loading. Please wait.

Perfect Tab

3,883 views 9 this week
1 commentread comment
1 2 3 4 5
please rate
add to favorites
launch autoscroll
font size
0
reset
how to read this tab
guitar tuner
Autoscroll
slow
fast
+/-
esc
set tempo
stop
Help us to improve Ultimate-Guitar.com Take our survey!
×
Contributor
Difficulty
Tuning
novice
B F# B E G# C#
Perfect by My Darkest Days, tabbed by Sinthu Kamalanathan.

The song is played in Drop B.

Duration Legend
---------------
W - whole
H - half
Q - quarter
E - 8th
S - 16th
T - 32nd
X - 64th
. - note dotted
|-n-|  - n-tuplets


Tablature Legend
----------------
L - tied note
x - dead note
g - grace note
(n) - ghost note
> - accentuded note
NH - natural harmonic
AH - artificial harmonic
TH - tapped harmonic
SH - semi harmonic
PH - pitch harmonic
h - hammer on
p - pull off
b - bend
br - bendRelease
pb - preBend
pbr - preBendRelease
brb - bendReleaseBend
\n/ - tremolo bar dip
\n - tremolo bar dive
-/n - tremolo bar Release up
/n\ - tremolo bar inverted dip
/n - tremolo bar return
-\n - tremolo bar Release down
S - shift slide
s - legato slide
/ -  slide into from below or out of upwards
\ -  slide into from above or out of downwards
~ - vibrato
W - wide vibrato
tr - trill
TP - tremolo picking
T - tapping
S - slap
P - pop
< - fade in
^ - brush up
v - brush down

Intro

      E  E  E.  S E  E  E  E     E.  S E  E  E  E  E  E
C#||--------------------------|--------------------------|
G#||--------------------------|--------------------------|
E ||--------------------------|--------------------------|
B ||--------------------------|--------------------------|
F#||--9--7--9-----x--x--9--7--|--9--------x--9--9--x--9--|
B ||--9--7--9-----x--x--9--7--|--9--------x--9--9--x--9--|


  E  E  E.  S E  E  E  E     H        H           E  E  E.  S E  E  E  E
--------------------------|--------------------|--------------------------|
--------------------------|--------------------|--------------------------|
--------------------------|--7-----------------|--------------------------|
--------------------------|--7--------7--------|--------------------------|
--5--4--5--------5--5--4--|--5--------7--------|--9--7--9-----x--x--9--7--|
--5--4--5--------5--5--4--|-----------7--------|--9--7--9-----x--x--9--7--|


  E.  S E  E  E  E  E  E     E  E  E.  S E  E  E  E     H        H
--------------------------|--------------------------|--------------------|
--------------------------|--------------------------|--------------------|
--------------------------|--------------------------|--7-----------------|
--------------------------|--------------------------|--7--------7--------|
--9--------x--9--9--x--9--|--5--4--5--------5--5--4--|--5--------7--------|
--9--------x--9--9--x--9--|--5--4--5--------5--5--4--|-----------7--------|

Verse

8 bars of rest for the guitar.

-----------|-----------|-----------|-----------|-----------|-----------|
-----------|-----------|-----------|-----------|-----------|-----------|
-----------|-----------|-----------|-----------|-----------|-----------|
-----------|-----------|-----------|-----------|-----------|-----------|
-----------|-----------|-----------|-----------|-----------|-----------|
-----------|-----------|-----------|-----------|-----------|-----------|


-----------|-----------|
-----------|-----------|
-----------|-----------|
-----------|-----------|
-----------|-----------|
-----------|-----------|

Clean Guitar enters with drums (taken from a live performance), the same part is played 
after 8 bars again during the second verse.

Q.     Q.     Q       W
--7------------------|-------------------|-------------------|
---------7-----------|-------------------|-------------------|
----------------7----|--L----------------|-------------------|
---------------------|-------------------|-------------------|
---------------------|-------------------|-------------------|
---------------------|-------------------|-------------------|
  W                   Q.     Q.     Q       W
-------------------|--5-------------7----|--L----------------|
-------------------|---------5-----------|-------------------|
--L----------------|---------------------|-------------------|
-------------------|---------------------|-------------------|
-------------------|---------------------|-------------------|
-------------------|---------------------|-------------------|


  Q.     Q.     Q       W
--7------------------|-------------------|-------------------|
---------7-----------|-------------------|-------------------|
----------------7----|--L----------------|-------------------|
---------------------|-------------------|-------------------|
---------------------|-------------------|-------------------|
---------------------|-------------------|-------------------|

Chorus

   Q    E  E  Q    E  E     E  E  E  E  Q    E  E
|------------------------|-------------------------|
|------------------------|-------------------------|
|------------------------|-------------------------|
|--5----------5-------7--|--------------7----------|
|--5----5--5--5----5--7--|--L--7--7--7--7----7--7--|
|--5----5--5--5----5--7--|--L--7--7--7--7----7--7--|


  Q    E  E  Q    E  E     E  E  E  E  Q    E  E     Q    E  E  Q    E  E
------------------------|-------------------------|------------------------|
------------------------|-------------------------|------------------------|
---------------------7--|--L--7--7--7--7----7--7--|------------------------|
--9----------9-------7--|--L--7--7--7--7----7--7--|--5----------5-------7--|
--9----9--9--9----9--5--|--L--5--5--5--5----5--5--|--5----5--5--5----5--7--|
--9----9--9--9----9-----|-------------------------|--5----5--5--5----5--7--|


  E  E  E  E  Q    E  E     Q    E  E  Q    E  E     E  E  E  E  Q    E  E
-------------------------|------------------------|-------------------------|
-------------------------|------------------------|-------------------------|
-------------------------|---------------------7--|--L--7--7--7--7----7--7--|
--------------7----------|--9----------9-------7--|--L--7--7--7--7----7--7--|
--L--7--7--7--7----7--7--|--9----9--9--9----9--5--|--L--5--5--5--5----5--5--|
--L--7--7--7--7----7--7--|--9----9--9--9----9-----|-------------------------|


  Q    E  E  Q    E  E     E  E  E  E  Q    E  E     Q    E  E  Q    E  E
------------------------|-------------------------|------------------------|
------------------------|-------------------------|------------------------|
------------------------|-------------------------|---------------------7--|
--5----------5-------7--|--------------7----------|--9----------9-------7--|
--5----5--5--5----5--7--|--L--7--7--7--7----7--7--|--9----9--9--9----9--5--|
--5----5--5--5----5--7--|--L--7--7--7--7----7--7--|--9----9--9--9----9-----|


  E  E  E  E  Q    E  E     Q    E  E  Q    E  E     E  E  E  E  Q    E  E
-------------------------|------------------------|-------------------------|
-------------------------|------------------------|-------------------------|
--L--7--7--7--7----7--7--|------------------------|-------------------------|
--L--7--7--7--7----7--7--|--5----------5-------7--|--------------7----------|
--L--5--5--5--5----5--5--|--5----5--5--5----5--7--|--L--7--7--7--7----7--7--|
-------------------------|--5----5--5--5----5--7--|--L--7--7--7--7----7--7--|


  Q    E  E  Q    E  E     E  E  E  E  Q    E  E     W
------------------------|-------------------------|-------------------|
------------------------|-------------------------|-------------------|
---------------------7--|--L--7--7--7--7----7--7--|-------------------|
--9----------9-------7--|--L--7--7--7--7----7--7--|--5----------------|
--9----9--9--9----9--5--|--L--5--5--5--5----5--5--|--5----------------|
--9----9--9--9----9-----|-------------------------|--5----------------|

                    The intro part is played only once this time

  W                   E  E  E.  S E  E  E  E     E.  S E  E  E  E  E  E
-------------------|--------------------------|--------------------------|
-------------------|--------------------------|--------------------------|
-------------------|--------------------------|--------------------------|
--7----------------|--------------------------|--------------------------|
--7----------------|--9--7--9-----x--x--9--7--|--9--------x--9--9--x--9--|
--7----------------|--9--7--9-----x--x--9--7--|--9--------x--9--9--x--9--|

                                               Verse
  E  E  E.  S E  E  E  E     H        H
--------------------------|--------------------|-----------|-----------|
--------------------------|--------------------|-----------|-----------|
--------------------------|--7-----------------|-----------|-----------|
--------------------------|--7--------7--------|-----------|-----------|
--5--4--5--------5--5--4--|--5--------7--------|-----------|-----------|
--5--4--5--------5--5--4--|-----------7--------|-----------|-----------|


-----------|-----------|-----------|-----------|-----------|-----------|
-----------|-----------|-----------|-----------|-----------|-----------|
-----------|-----------|-----------|-----------|-----------|-----------|
-----------|-----------|-----------|-----------|-----------|-----------|
-----------|-----------|-----------|-----------|-----------|-----------|
-----------|-----------|-----------|-----------|-----------|-----------|

Clean guitar enters

Q.     Q.     Q       W
--7------------------|-------------------|-------------------|
---------7-----------|-------------------|-------------------|
----------------7----|--L----------------|-------------------|
---------------------|-------------------|-------------------|
---------------------|-------------------|-------------------|
---------------------|-------------------|-------------------|
  W                   Q.     Q.     Q       W
-------------------|--5-------------7----|--L----------------|
-------------------|---------5-----------|-------------------|
--L----------------|---------------------|-------------------|
-------------------|---------------------|-------------------|
-------------------|---------------------|-------------------|
-------------------|---------------------|-------------------|


  Q.     Q.     Q       W
--7------------------|-------------------|-------------------|
---------7-----------|-------------------|-------------------|
----------------7----|--L----------------|-------------------|
---------------------|-------------------|-------------------|
---------------------|-------------------|-------------------|
---------------------|-------------------|-------------------|

Chorus

  Q    E  E  Q    E  E     E  E  E  E  Q    E  E     Q    E  E  Q    E  E
------------------------|-------------------------|------------------------|
------------------------|-------------------------|------------------------|
------------------------|-------------------------|---------------------7--|
--5----------5-------7--|--------------7----------|--9----------9-------7--|
--5----5--5--5----5--7--|--L--7--7--7--7----7--7--|--9----9--9--9----9--5--|
--5----5--5--5----5--7--|--L--7--7--7--7----7--7--|--9----9--9--9----9-----|


  E  E  E  E  Q    E  E     Q    E  E  Q    E  E     E  E  E  E  Q    E  E
-------------------------|------------------------|-------------------------|
-------------------------|------------------------|-------------------------|
--L--7--7--7--7----7--7--|------------------------|-------------------------|
--L--7--7--7--7----7--7--|--5----------5-------7--|--------------7----------|
--L--5--5--5--5----5--5--|--5----5--5--5----5--7--|--L--7--7--7--7----7--7--|
-------------------------|--5----5--5--5----5--7--|--L--7--7--7--7----7--7--|


  Q    E  E  Q    E  E     E  E  E  E  Q    E  E     Q    E  E  Q    E  E
------------------------|-------------------------|------------------------|
------------------------|-------------------------|------------------------|
---------------------7--|--L--7--7--7--7----7--7--|------------------------|
--9----------9-------7--|--L--7--7--7--7----7--7--|--5----------5-------7--|
--9----9--9--9----9--5--|--L--5--5--5--5----5--5--|--5----5--5--5----5--7--|
--9----9--9--9----9-----|-------------------------|--5----5--5--5----5--7--|


  E  E  E  E  Q    E  E     Q    E  E  Q    E  E     E  E  E  E  Q    E  E
-------------------------|------------------------|-------------------------|
-------------------------|------------------------|-------------------------|
-------------------------|---------------------7--|--L--7--7--7--7----7--7--|
--------------7----------|--9----------9-------7--|--L--7--7--7--7----7--7--|
--L--7--7--7--7----7--7--|--9----9--9--9----9--5--|--L--5--5--5--5----5--5--|
--L--7--7--7--7----7--7--|--9----9--9--9----9-----|-------------------------|


  Q    E  E  Q    E  E     E  E  E  E  Q    E  E     Q    E  E  Q    E  E
------------------------|-------------------------|------------------------|
------------------------|-------------------------|------------------------|
------------------------|-------------------------|---------------------7--|
--5----------5-------7--|--------------7----------|--9----------9-------7--|
--5----5--5--5----5--7--|--L--7--7--7--7----7--7--|--9----9--9--9----9--5--|
--5----5--5--5----5--7--|--L--7--7--7--7----7--7--|--9----9--9--9----9-----|


  E  E  E  E  Q    E  E     Q    E  E  Q    E  E     E  E  E  E  Q    E  E
-------------------------|------------------------|-------------------------|
-------------------------|------------------------|-------------------------|
--L--7--7--7--7----7--7--|------------------------|-------------------------|
--L--7--7--7--7----7--7--|--5----------5----------|-------------------------|
--L--5--5--5--5----5--5--|--5----5--5--5----5--7--|--L--7--7--7--7----7--7--|
-------------------------|--5----5--5--5----5--7--|--L--7--7--7--7----7--7--|

The intro theme is played twice here

  E  E  E.  S E  E  E  E     E.  S E  E  E  E  E  E
--------------------------|--------------------------|
--------------------------|--------------------------|
--------------------------|--------------------------|
--------------------------|--------------------------|
--9--7--9-----x--x--9--7--|--9--------x--9--9--x--9--|
--9--7--9-----x--x--9--7--|--9--------x--9--9--x--9--|


  E  E  E.  S E  E  E  E     H        H           E  E  E.  S E  E  E  E
--------------------------|--------------------|--------------------------|
--------------------------|--------------------|--------------------------|
--------------------------|--7-----------------|--------------------------|
--------------------------|--7--------7--------|--------------------------|
--5--4--5--------5--5--4--|--5--------7--------|--9--7--9-----x--x--9--7--|
--5--4--5--------5--5--4--|-----------7--------|--9--7--9-----x--x--9--7--|


  E.  S E  E  E  E  E  E     E  E  E.  S E  E  E  E     H        H
--------------------------|--------------------------|--------------------|
--------------------------|--------------------------|--------------------|
--------------------------|--------------------------|--7-----------------|
--------------------------|--------------------------|--7--------7--------|
--9--------x--9--9--x--9--|--5--4--5--------5--5--4--|--5--------7--------|
--9--------x--9--9--x--9--|--5--4--5--------5--5--4--|-----------7--------|

There's about 8 bars of rest for the guitar, then it returns to the chorus, but it's 
only played twice this time, instead of four times.


  Q    E  E  Q    E  E     E  E  E  E  Q    E  E     Q    E  E  Q    E  E
------------------------|-------------------------|------------------------|
------------------------|-------------------------|------------------------|
------------------------|-------------------------|---------------------7--|
--5----------5-------7--|--------------7----------|--9----------9-------7--|
--5----5--5--5----5--7--|--L--7--7--7--7----7--7--|--9----9--9--9----9--5--|
--5----5--5--5----5--7--|--L--7--7--7--7----7--7--|--9----9--9--9----9-----|


  E  E  E  E  Q    E  E     Q    E  E  Q    E  E     E  E  E  E  Q    E  E
-------------------------|------------------------|-------------------------|
-------------------------|------------------------|-------------------------|
--L--7--7--7--7----7--7--|------------------------|-------------------------|
--L--7--7--7--7----7--7--|--5----------5-------7--|--------------7----------|
--L--5--5--5--5----5--5--|--5----5--5--5----5--7--|--L--7--7--7--7----7--7--|
-------------------------|--5----5--5--5----5--7--|--L--7--7--7--7----7--7--|


  Q    E  E  Q    E  E     E  E  E  E  Q    E  E     Q    E  E  Q    E  E
------------------------|-------------------------|------------------------|
------------------------|-------------------------|------------------------|
---------------------7--|--L--7--7--7--7----7--7--|------------------------|
--9----------9-------7--|--L--7--7--7--7----7--7--|--5----------5----------|
--9----9--9--9----9--5--|--L--5--5--5--5----5--5--|--5----5--5--5----5--7--|
--9----9--9--9----9-----|-------------------------|--5----5--5--5----5--7--|


   E  E  E  E  Q    E  E
|-------------------------|
|-------------------------|
|-------------------------|
|-------------------------|
|--L--7--7--7--7----7--7--|
|--L--7--7--7--7----7--7--|

Back to the intro theme, which finishes the song.


   E  E  E.  S E  E  E  E     E.  S E  E  E  E  E  E
|--------------------------|--------------------------|
|--------------------------|--------------------------|
|--------------------------|--------------------------|
|--------------------------|--------------------------|
|--9--7--9-----x--x--9--7--|--9--------x--9--9--x--9--|
|--9--7--9-----x--x--9--7--|--9--------x--9--9--x--9--|


  E  E  E.  S E  E  E  E     H        H           E  E  E.  S E  E  E  E
--------------------------|--------------------|--------------------------|
--------------------------|--------------------|--------------------------|
--------------------------|--7-----------------|--------------------------|
--------------------------|--7--------7--------|--------------------------|
--5--4--5--------5--5--4--|--5--------7--------|--9--7--9-----x--x--9--7--|
--5--4--5--------5--5--4--|-----------7--------|--9--7--9-----x--x--9--7--|


  E.  S E  E  E  E  E  E     E  E  E.  S E  E  E  E     H        H
--------------------------|--------------------------|--------------------|
--------------------------|--------------------------|--------------------|
--------------------------|--------------------------|--7-----------------|
--------------------------|--------------------------|--7--------7--------|
--9--------x--9--9--x--9--|--5--4--5--------5--5--4--|--5--------7--------|
--9--------x--9--9--x--9--|--5--4--5--------5--5--4--|-----------7--------|
Suggest correction What's this?
You can suggest a correction to this tab. Community and Mods will review your correction and vote to approve or reject it.
comments
We did not receive enough feedback on this tab! Please rate:
print report bad tab
1 2 3 4 5
1 comment total.
0 reply
rocknrolldude43 122 wrote on July 11 2012, 07:49 pm

Not to sound like a snob, but it's actually in Drop C#. If you watch footage of them playing it live Sal is using his Gibson "Orgasm Donor Betty" V- which is his main C# guitar- for this song.

Case in point: http://www.youtube.com/watch?v=ThXM8KLr1Zk

I want to post or [tab]
guest
You may want to rate the tab now too:
select rating
Please do not post tabs as comments. Select "correction" instead!