Oops, an error
Loading. Please wait.

Porn Star Dancing Bass Tab

version 1
version 1

Whole song

Interactive

4,645 views 18 this week
no commentswrite comment
1 2 3 4 5
please rate
add to favorites
launch autoscroll
font size
0
reset
guitar tuner
Autoscroll
slow
fast
+/-
esc
set tempo
stop
Help us to improve Ultimate-Guitar.com Take our survey!
×
Author
-------------------------------------------------------------------------------
                             Porn Star Dancing - My Darkest Days (bassist -Brendan McMillan)
-------------------------------------------------------------------------------
Tabbed By : Evan Margeux
e-mail: vuviboy@aol.com

| /  slide up
| \  slide down
| h  hammer-on
| p  pull-off

Verse:
G|------------------------------------------|
D|------------------------------------------|
A|------------------------------------------|
E|--00--3--000-333h00--3--000--333h0--------| Continued....

G|---------------------------------------------|
D|---------------------------------------------|
A|--0------------------------------------------| (porn star dancing...)
E|-----3--2---0--------------------------------|

Pre Chorus
G|--------------------------|
D|--------------------------|(but i got a girl who can put on a show)
A|--------------------------|
E|---55555555555555h7777\3--|

Chorus
G|---------------------------------------------|
D|-----55-------5555----55---55---3h5p3--------|  (con'td the Porn Star Dancing)
A|------------------------------5-------5-33---|(you can put in any fills that
E|--3--------33-------3-----3---------------3 -| sound good)

Another Fill You Could Put in the chorus
G|---------------------------------3h5----------------|
D|----55------5555-----55----553------53--------------|
A|----------------------------------------5-----------|
E|--3------33--------3-----3----------------3---------|

G|----------------------------------------------------|
D|----------------------------------------------------| (your bodies lighting up the room)
A|----------------3333-----------3333-----------------|
E|----55555555----------55555-----------55555---3333--| (porn star dancing)

Chad Kroeger Part (same as verse)
G|------------------------------------------|
D|------------------------------------------|
A|------------------------------------------|
E|--00--3--000-333h00--3--000--333h0--------|


And The Rest Of The Song Repeats Itself!
This Song Is Amazing!!
Hope This Helped You Begginers Out There!!!
Suggest correction
What's this?
You can suggest a correction to this tab. Community and Mods will review your correction and vote to approve or reject it.
comments
We did not receive enough feedback on this tab! Please rate:
print report bad tab
1 2 3 4 5
guest
You may want to rate the tab now too:
select rating
Please do not post tabs as comments. Select "correction" instead!