Oops, an error
Loading. Please wait.

Porn Star Dancing Tab

version 2
version 2

Whole song

Interactive

24,578 views 51 this week
2 commentsread comments
1 2 3 4 5
accurate
x 8
add to favorites
launch autoscroll
font size
0
reset
how to read this tab
guitar tuner
Tab Pro tools
  • play this tab
  • loop segment
  • change instrument
  • show fretboard
  • metronome
×
Best way to learn
"Porn Star Dancing"
Autoscroll
slow
fast
+/-
esc
set tempo
stop
Difficulty
Tuning
intermediate
D A D G B E
Porn Star Dancing
My Darkest Days
tabbed by Dylan Hyde
---------------------------------------------------------------------------------

Intro:
eb|------|
Bb|------|
Gb|------|
Db|-[7]~-|
Ab|------|
Db|------|

Intro Solo:
Guitar 1
eb|------------------------------------------------|
Bb|------------------------------------------------|
Gb|------------------------------------------------|
Db|-3--X-XXX-3--X-XXX-3--X-XXX-3--X-XXX-8-8--1-3---|
Ab|-3--X-XXX-3--X-XXX-3--X-XXX-3--X-XXX-8-8--1-3---|
Db|-3--X-XXX-3--X-XXX-3--X-XXX-3--X-XXX-8-8--1-3---|

Guitar 2 (wah)
eb|---------------------------------------------------------------------------|
Bb|-5b~-----------------------------------------------------------------------|
Gb|-5b~-3-----------------------17b-15-17b-15-17br15-17b-15~--17~-15~---------|
Db|-------5~--3---5---------------------------------------------------17~-15~-|
Ab|-------------5---5-4-3-0---------------------------------------------------|
Db|-------------------------5~------------------------------------------------|

Verse:
Guitar 1:
eb|-------------------------------------------------------------------------|
Bb|-------------------------------------------------------------------------|
Gb|-------------------------------------------------------------------------|
Db|-3-3-1-3-1-3-X-XXX-3-3-1-3-1-3-X-XXX-3-3-1-3-1-3-X-XXX-3-3-1-3-1-3-X-XXX-|  2x
Ab|-3-3-1-3-1-3-X-XXX-3-3-1-3-1-3-X-XXX-3-3-1-3-1-3-X-XXX-3-3-1-3-1-3-X-XXX-|
Db|-3-3-1-3-1-3-X-XXX-3-3-1-3-1-3-X-XXX-3-3-1-3-1-3-X-XXX-3-3-1-3-1-3-X-XXX-|
p.m.|----------|     |-----------|     |-----------|     |-----------|

Guitar 2:
eb|--------|
Bb|--------|
Gb|--------|
Db|--------|
Ab|--------|
Db|-[8]~~~-|

Pre-Chorus:
Guitar 1:
eb|----------------|
Bb|----------------|
Gb|-6~----3--------|
Db|-6~----3--X-XXX-|
Ab|-4~----1--X-XXX-|
Db|----------X-XXX-|

Chorus:
Guitar 1:
eb|------------------------------------------------|
Bb|------------------------------------------------|
Gb|------------------------------------------------|
Db|-3--X-XXX-3--X-XXX-3--X-XXX-3--X-XXX-8-8--1-3---|  2x
Ab|-3--X-XXX-3--X-XXX-3--X-XXX-3--X-XXX-8-8--1-3---|
Db|-3--X-XXX-3--X-XXX-3--X-XXX-3--X-XXX-8-8--1-3---|

Repeat Verse

Repeat Pre-Chorus
Repeat Chorus

Guitar 1:
Play Chorus

Guitar 2: (with wah) (Zakk Wylde solo)
eb|----------------------------17b~-17p15---------------|
Bb|-5b~-----------------------------------17b-17b-17b~~-|
Gb|-5b~-3-----------------------------------------------|
Db|-------5~-3---5--------------------------------------|
Ab|------------5---5-4-3-0------------------------------|
Db|------------------------5~---------------------------|

   (fast part)
eb|-15-13-10-13-10----------------------------------------------------|
Bb|----------------13-10-------13-10----------------------------------|
Gb|----------------------12-10-------12-10----10------------17br-17b~-|
Db|----------------------------------------12----12-10----------------|
Ab|----------------------------------------------------12~------------|
Db|-------------------------------------------------------------------|

eb|------------------------------------------------------------------|
Bb|------------------------------------------------------------------|
Gb|-17b-15-17b-15-17br-15-17b-15~--17p15-17p15-17p15--------17b-17b~-|
Db|--------------------------------------------------17p15-----------|
Ab|------------------------------------------------------------------|
Db|------------------------------------------------------------------|

eb|------5h6h8p6p5-------7h8h10p8p7-------8h9h11p9p8--------9h10h12p10p9-|
Bb|-5h6h8----------7h8h10-----------8h9h11-----------9h10h12-------------|
Gb|----------------------------------------------------------------------|
Db|----------------------------------------------------------------------|
Ab|----------------------------------------------------------------------|
Db|----------------------------------------------------------------------|

eb|-12h14h16-15h17h19-17h19h21----------|
Bb|----------------------------20b-20b~-|
Gb|-------------------------------------|
Db|-------------------------------------|
Ab|-------------------------------------|
Db|-------------------------------------|


Repeat Chorus

[]-natural harmonic
~-vibrato
h-hammer on
p-pull off
b-bend
X-mute
comments
print report bad tab
2 comments total.
+1 reply
viperplayer wrote on May 29 2011, 07:38 pm

how about a power or pro?

0 reply
maarten_vangest wrote on April 10 2015, 10:59 am

Working on a Rocksmith CDLC and possibly a youtube playtrough

I want to post or [tab]
guest
You may want to rate the tab now too:
select rating
Please do not post tabs as comments. Select "correction" instead!