Oops, an error
Loading. Please wait.

A Cruel Taste Of Winter bass

version 1
version 1

Whole song

Interactive

291 views 1 this week
no commentswrite comment
1 2 3 4 5
3 more votes to show rating
add to favorites
×
Save as Personal and add changes to this tab that will be seen only by you. Learn more ›
×
You can save this tab as Personal to edit and correct it or add notes. All changes will be seen only by you. Learn more »
launch autoscroll
font size
0
reset
guitar tuner
edit
Autoscroll
slow
fast
+/-
esc
set tempo
stop
Author
Difficulty
================================================================================
                           M Y   D Y I N G   B R I D E

                                        -

                   A   C R U E L   T A S T E   O F   W I N T E R
================================================================================


                                THE DREADFUL HOURS
                          (c) Peaceville  Records (2001)
                           http://www.mydyingbride.org/


                        Tune Down  1 & 1/2 Steps [5-String]
                                   G# C# F# B E

         Although the song is played on a 5-string no action takes place
               on the B-string, so a standard 4-string will be fine.

                                  Tempo = 64 BPM
                               Time Signature = 4/4



                          -----------------------------
                                 Transcribed by

                                 PADDY MCMULLAN
                           pmtabs (@t) gmail [dot] com

                                   Version 1.0
                                7th November 2010
                             -----------------------

                             Tablature Symbols Used:



 ( )          -  Ghost Note/Tied Note/Implied Note
 REST         -  Rest and sustain rest for duration of blank space
 |____[1,2,3] -  Alternative Endings
 *            -  Staccato Note (Bring the indicated note to an abrupt stop)
 |_3_|        -  Triplet Notes



================================================================================
Part 1: Play 4 times                                      [ Time 00:00 - 00:30 ]
================================================================================


||--------------------------|--------------------------| |
||--------*-----------*-----|--------------------------|*|
||----7---7-------7---7-----|----10--------------------| |
||--0-----------8-----------|--7------7--0--7----7-----|*|
||--------------------------|--------------------------| |



================================================================================
Part 2: Play twice                                        [ Time 00:30 - 00:45 ]
================================================================================


                              |__________________________[1]
||----------------------------|--------------------------| |
||----------------------------|--------------------------|*|
||----------------------------|--------------------------| |
||--5---5---(5/7)-8---8---8-7-|--7---7---7\ 5-5---5---3--|*|
||----------------------------|--------------------------| |


|__________________________[2]
|---------------------------||
|---------------------------||
|---------------------------||
|--7---7---7\ 5-5--5--------||
|---------------------8\  --||



================================================================================
Repeat Part 1 four times                                  [ Time 00:45 - 01:16 ]
================================================================================

================================================================================
Repeat Part 2 four times                                  [ Time 01:16 - 01:45 ]
================================================================================

================================================================================
Part 3: Play once                                         [ Time 01:45 - 02:00 ]
================================================================================


||-----R--           --|--               --|--               --|
||-----E--           --|--               --|--               --|
||-----S--           --|--               --|--               --|
||--0--T--           --|--               --|--               --|
||---------------------|-------------------|-------------------|


|--       ------------||
|--       ------------||
|--       ------------||
|--       --3----2----||
|---------------------||



================================================================================
Part 4: Play once                                         [ Time 02:46 - 02:46 ]
================================================================================


  1                    2
||--------------------|--------------------|
||--------------------|--------------------|
||--3--------2--------|--------------------|
||--------------------|--3--------2--------|
||--------------------|--------------------|

 3                    4                    5
|--------------------|--------------------|----------------------------------|
|--------------------|--------------------|----------------------------------|
|--3--------2--------|--------------------|--3-3-3-3-3-3-3-3-2-2-2-2-2-2-2-2-|
|--------------------|--3--------2--------|----------------------------------|
|--------------------|--------------------|----------------------------------|

 6                                  7
|----------------------------------|----------------------------------|
|----------------------------------|----------------------------------|
|----------------------------------|--3-3-3-3-3-3-3-3-2-2-2-2-2-2-2-2-|
|--3-3-3-3-3-3-3-3-2-2-2-2-2-2-2-2-|----------------------------------|
|----------------------------------|----------------------------------|

 8                                  9                    10
|----------------------------------|--------------------|--------------------|
|----------------------------------|--------------------|--------------------|
|----------------------------------|--3--------2--------|--------------------|
|--3-3-3-3-3-3-3-3-2-2-2-2-2-2-2-2-|--------------------|--3--------2--------|
|----------------------------------|--------------------|--------------------|


 11                   12|__3__|  |__3__|  |__3__|  |__3__|
|--------------------|--------------------------------------||
|--------------------|--------------------------------------||
|--3--------2--------|--------------------------------2-----||
|--------------------|--3--3--3--3--5--3--2--2--2--3-----3--||
|--------------------|--------------------------------------||



================================================================================
Repeat Part 1 four times                                  [ Time 02:46 - 03:15 ]
================================================================================

================================================================================
Repeat Part 2 four times                                  [ Time 03:15 - 03:45 ]
================================================================================

================================================================================
Part 5: Play 8 times                                      [ Time 03:45 - 04:45 ]
================================================================================


||--------------------------------|---------------------------| |
||--------------------------------|---------------------------|*|
||-----------2-0-2----------2-0-2-|--3--------2-0-2-----------| |
||--3-0-0--3-------3-0-0--3-------|----0-0--3-------3----1----|*|
||--------------------------------|---------------------------| |



================================================================================
Repeat Part 1 four times                                  [ Time 04:45 - 05:16 ]
================================================================================

================================================================================
Repeat Part 2 four times                                  [ Time 05:16 - 05:46 ]
================================================================================

================================================================================
Repeat Part 4, replacing the last bar with the following  [ Time 05:46 - 06:31 ]
================================================================================


   |__3__|  |__3__|  |__3__|  |__3__|
|--------------------------------------||
|--------------------------------------||
|--------------------------------------||
|--3--3--3--3--5--3--2--3--5--3--2--3--||
|--------------------------------------||



================================================================================
Part 6: Repeat Part 5 four times then play the following      [Time 06:32 - End]
================================================================================


|---------R-   --------    --|---------    ------------| |
|---------E-   --------    --|---------    ------------|*|
|---------S-   --------    --|---------    ------------| | x 2
|--3-0-0--T-   -3-0-0--    --|--3-0-0--    --3----1----|*|
|----------------------------|-------------------------| |


|---------R--         --||
|---------E--         --||
|---------S--         --||
|--3-0-0--T--         --||
|-----------------------||



================================================================================
End
================================================================================


Tab summary:        Part 1 x 4
                    Part 2 x 2
                    Part 1 x 4
                    Part 2 x 4
                    Part 3 x 1
                    Part 4 x 1
                    Part 1 x 4
                    Part 2 x 4
                    Part 5 x 8
                    Part 1 x 4
                    Part 2 x 4
                    Part 4 x 1
                    Part 6 x 1

                    END

            
            
Suggest correction
Creating personal tab
Creating personal tab
You can edit any tab online and save it as your Personal.

You can edit, replace or remove any tab part or add personal notes – all changes will be seen only by you.

Personal tabs can be accessed anytime from any device, even offline.
Learn more »
Give kudos to tab author, rate the tab!
1 2 3 4 5
comments
print report bad tab
guest
You may want to rate the tab now too:
select rating
Wanna post a correction for this tab? Suggest correction