Oops, an error
Loading. Please wait.

A Doomed Lover bass

version 1
version 1

Whole song

Interactive

233 views 1 this week
no commentswrite comment
1 2 3 4 5
3 more votes to show rating
add to favorites
×
Save as Personal and add changes to this tab that will be seen only by you. Learn more ›
×
You can save this tab as Personal to edit and correct it or add notes. All changes will be seen only by you. Learn more »
launch autoscroll
font size
0
reset
guitar tuner
edit
Autoscroll
slow
fast
+/-
esc
set tempo
stop
================================================================================
                           M Y   D Y I N G   B R I D E

                                        -

                           A   D O O M E D   L O V E R
================================================================================


                        SONGS OF DARKNESS, WORDS OF LIGHT
                          (c) Peaceville Records (2004)
                           http://www.mydyingbride.org/


                       Tune Down a 1/2 Step [5-String Bass]
                                   Bb Eb Ab Db Gb

                                   Tempo = 96 BPM
                                Time Signature = 4/4



                          -----------------------------
                                  Transcribed by

                                  PADDY MCMULLAN
                            stinkypoohpants@yahoo.co.uk

                                   Version 1.0
                                7th  January 2010
                             -----------------------

                             Tablature Symbols Used:


 \         -  Slide Down to/Down From
 /         -  Slide Up To/Up From
 ( / )     -  Legato Slide
 ( )       -  Ghost Note/Tied Note/Implied Note
 REST      -  Rest and sustain rest for duration of blank space
 |_[1,2,3] -  Alternative Endings



================================================================================
Section 1: Play 4 times
================================================================================


   //               Fade in             \\
||-------------------|-------------------||-------------------|
||-------------------|-------------------||-------------------|
||-------------------|-------------------||-------------------|
||--0----------------|--(0)--------------||--(0)--------------|
||-------------------|-------------------||-------------------|


|--------------------|-------------------|--------------------|
|--------------------|-------------------|--------------------|
|--------------------|-------------------|--------------------|
|--(0)------2--------|--0----------------|--(0)------2--------|
|--------------------|-------------------|--------------------|


|-------------------|-------------------|-------------------|
|-------------------|-------------------|-------------------|
|-------------------|-------------------|-------------------|
|--3----------------|--(3)--------------|--(3)--------------|
|-------------------|-------------------|-------------------|


|-------------------| |
|-------------------|*|
|-------------------| |
|--(3)--------------|*|
|-------------------| |



After the first time ignore the first 2 bars, and the ghost note in bar 3
becomes a normal note



================================================================================
Section 2: Play 3 times
================================================================================


||-------------------|----------------------|-------------------|
||-------------------|----------------------|-------------------|
||-------------------|----------------------|-------------------|
||-------------------|----------------------|-------------------|
||--0----------------|--(0)------8----7--8--|--0----------------|


|----------------------|-------------------|-------------------|
|----------------------|-------------------|-------------------|
|----------------------|-------------------|-------------------|
|----------------------|-------------------|-------------------|
|--(0)------8----7--8--|--9----------------|--(9)--------------|


|-------------------|-------------------| |
|-------------------|-------------------|*|
|-------------------|-------------------| |
|-------------------|-------------------|*|
|--9----------------|--(9)--------------| |



================================================================================
Repeat Section 1 twice, replacing the last bar with the following:
================================================================================


|--------------------||
|--------------------||
|-----------2--------||
|--3-----------------||
|--------------------||



================================================================================
Section 3: Play 4 and a half times
================================================================================


||---------------------|---------------------|---------------------|
||---------------------|---------------------|---------------------|
||---------------------|---------------------|---------------------|
||---------------------|---------------------|---------------------|
||--1---------------1--|--1---------------1--|--1---------------1--|

                        |___________________________________________
|-----------------------|---------------------|---------------------|
|-----------------------|---------------------|---------------------|
|-----------------------|---------------------|---------------------|
|-----------------------|---------------------|---------------------|
|--1--------1--1--1--1--|--2---------------2--|--2---------------2--|

 __________________________________________________[1]
|----------------------|---------------------------| |
|----------------------|---------------------------|*|
|----------------------|---------------------------| |
|----------------------|---------------------------|*|
|--2---------------2-2-|--2 / 5--5--5--5--4--4--1--| |

|___________________________________________________________
|-------------------|-------------------|-------------------|
|-------------------|-------------------|-------------------|
|-------------------|-------------------|-------------------|
|-------------------|-------------------|-------------------|
|--2----------------|--(2)--------------|--(2)--------------|

 _______________[2,3,4]
|-------------------| |
|-------------------|*|
|-------------------| |
|-------------------|*|
|--(2)--------------| |




================================================================================
Section 4: Play 10 times
================================================================================


||--------------------------|--------------------------|
||--------------------------|--------------------------|
||--------------------------|--------------------------|
||--------------------------|--------------4--4--4--4--|
||--1--1--1--1--1--1--1--1--|--1--1--1--1--------------|


|--------------------------|---------------------------|
|--------------------------|---------------------------|
|--------------------------|---------------------------|
|--3--3--3--3--1--1--1--1--|--1--1--1--1--1--1--1--1 / |
|--------------------------|---------------------------|


|--------------------------|--------------------------|
|--------------------------|--------------------------|
|--------------------------|--------------------3--3--|
|--4--4--4--4--4--4--4--4--|--4--4--4--4--3--3--------|
|--------------------------|--------------------------|

|___________________________________________________[1-9]
|--------------------------|--------------------------| |
|--------------------------|--------------------------|*|
|--------------------------|--------------------------| |
|--------------------------|--------------------------|*|
|--1--1--1--1--1--1--1--1--|--1--1--1--1--1--1--1--1--| |


|_____________________________________________[10]
|-----------|-----------|-----------|-----------||
|-----------|-----------|-----------|-----------||
|-----------|-----------|-----------|-----------||
|-----------|-----------|-----------|-----------||
|--1--------|--(1)------|--(1)------|--(1)------||



After the first time the 4th bar becomes 6/4, and the eighth notes are repeated
to fill it.



================================================================================
End
================================================================================


Tab summary:        Section 1 x 4
                    Section 2 x 3
                    Section 1 x 2
                    Section 3 x 4.5
                    Section 4 x 10

                    END

            
            
Suggest correction
Creating personal tab
Creating personal tab
You can edit any tab online and save it as your Personal.

You can edit, replace or remove any tab part or add personal notes – all changes will be seen only by you.

Personal tabs can be accessed anytime from any device, even offline.
Learn more »
Give kudos to tab author, rate the tab!
1 2 3 4 5
comments
print report bad tab
guest
You may want to rate the tab now too:
select rating
Wanna post a correction for this tab? Suggest correction