Oops, an error
Loading. Please wait.

And I Walk With Them bass

version 1
version 1

Whole song

Interactive

201 views 1 this week
no commentswrite comment
1 2 3 4 5
3 more votes to show rating
add to favorites
×
Save as Personal and add changes to this tab that will be seen only by you. Learn more ›
×
You can save this tab as Personal to edit and correct it or add notes. All changes will be seen only by you. Learn more »
launch autoscroll
font size
0
reset
guitar tuner
edit
Autoscroll
slow
fast
+/-
esc
set tempo
stop
Author
Difficulty
================================================================================
                           M Y   D Y I N G   B R I D E

                                        -

                     A N D   I   W A L K   W I T H   T H E M
================================================================================


                            A LINE OF DEATHLESS KINGS
                          (c) Peaceville Records - 2006
                           http://www.mydyingbride.org/


                      Tune Down 1 & 1/2 Steps [5-string Bass]
                                    G #C# F# B E

                                  Tempo = 126 BPM
                               Time Signature = 4/4



                          -----------------------------
                                  Transcribed by

                                  PADDY MCMULLAN
                            stinkypoohpants@yahoo.co.uk

                                   Version 1.0
                                5th November 2009
                             -----------------------

                             Tablature Symbols Used:


 p         -  Pull-Off
 h         -  Hammer-On
 \         -  Slide Down to/Down From
 /         -  Slide Up To/Up From
 ( / )     -  Legato Slide
 ( )       -  Ghost Note/Tied Note/Implied Note
 REST      -  Rest and sustain rest for duration of blank space
 |__[1,2]  -  Alternative Endings



================================================================================
Rest for 4 bars
================================================================================

================================================================================
Section 1: Play 4 times
================================================================================


||-----------------------|--------------------------|
||-----------------------|--------------------2--1--|
||---------0--2--3----0--|--2--3--2--0--2--3--------|
||--0--------------------|--------------------------|
||-----------------------|--------------------------|


|-----------------------|-------------------------| |
|--2------0--2--3----2--|--1----------------4--5--| |
|-----------------------|-----2----2--3--2--------|*|
|-----------------------|-------------------------|*|
|-----------------------|-------------------------| |



================================================================================
Section 2: Play twice
================================================================================


||-------------------|-------------------|---------------------|
||-------------------|-------------------|---------------------|
||-------------------|-------------------|---------------------|
||--0----------------|--(0)--------------|--(0)----------8--7--|
||-------------------|-------------------|---------------------|


|--------------------------|---------------------|-------------------|
|--------------------------|---------------------|-------------------|
|--------------------------|---------------------|-------------------|
|--(8\7) \ 3----3  /  7----|--6\ ---0------------|--(0)--------------|
|--------------------------|---------------------|-------------------|


|---------------------|--------------------------|--------------------|
|---------------------|--------------------------|--R-  --------------|
|---------------------|--------------------------|--E-  --------------|
|--(0)----------8--7--|--(8\7) \ 3----3  /  7----|--S-  -0------------|
|---------------------|--------------------------|--T-  --------------|


|-------------------|---------------------|--------------------------| |
|-------------------|---------------------|--------------------------| |
|-------------------|---------------------|--------------------------|*|
|--(0)--------------|--(0)----------8--7--|--(8\7) \ 3----3  /  7----|*|
|-------------------|---------------------|--------------------------| |



After the first time replace the 1st bar with the 5th



================================================================================
Section 3: Play 4 times
================================================================================

|____________________________________________________________
||-------------------|-------------------|-------------------|
||-------------------|-------------------|-------------------|
||-------------------|-------------------|-------------------|
||--0----------------|--2----------------|--3----------------|
||-------------------|-------------------|-------------------|

 _______________[1,2,3]
|-------------------| |
|-------------------| |
|-------------------|*|
|--3----------------|*|
|-------------------| |

|_______________________________________________________________
||--------------------|---------------------|-------------------|
||--------------------|---------------------|-------------------|
||--------------------|---------------------|-------------------|
||--0------------0----|--2--------2----3----|--(3)--------------|
||--------------------|---------------------|-------------------|

 ____________________[4]
|---------------------||
|---------------------||
|---------------------||
|--(3)----------7--8--||
|---------------------||



================================================================================
Play Section 1 four times
================================================================================

================================================================================
Play Section 2 twice
================================================================================

================================================================================
Rest for 23 bars
================================================================================

================================================================================
Section 4: Play 4 times
================================================================================


||-----------------------||--------------------|--------------------|
||--R-      -------------||--------------------|--------------------|
||--E-      -------------||--7------------7----|--9------------9----|
||--S-      -7--7---- \--||--------------------|--------------------|
||--T-      -------------||--------------------|--------------------|

                     |_______________________[1,3]
|--------------------|-------------------------| |
|--------------------|-------------------------| |
|--10----------------|--10-------(10 h 12)-----|*|
|--------------------|-------------------------|*|
|--------------------|-------------------------| |

|______________________[2,4]
|------------------------| |
|------------------------| |
|--10--------------------|*|
|------------------------|*|
|-----------(8 h 10)-----| |



================================================================================
Section 5: Play twice
================================================================================


||--------------------|----------------------|------------------------|
||--------------------|----------------------|------------------------|
||--------------------|----------------------|------------------------|
||--0------------3----|--2--------2----2--3--|--5--3--3----3----2--3--|
||--------------------|----------------------|------------------------|


|----------------------| |
|----------------------| |
|----------------------|*|
|--2--------3----2--3--|*|
|----------------------| |



================================================================================
Section 6: Play twice
================================================================================


||---------------------|---------------------|------------------------|
||---------------------|---------------------|------------------------|
||-----------7----7----|-----------7----7----|-------------7----7--7--|
||--0------------------|--8------------------|--7--8--7---------------|
||---------------------|---------------------|------------------------|


|----------------------| |
|----------------------| |
|--7--------10----9----|*|
|--5-------------------|*|
|----------------------| |



================================================================================
Section 7: Play twice
================================================================================


||---------------------|----------------------|------------------------|
||---------------------|----------------------|------------------------|
||---------------------|----------------------|------------------------|
||--0--------0----3----|--2--------2----2--3--|--5--3--3----3----2--3--|
||---------------------|----------------------|------------------------|


|----------------------| |
|----------------------| |
|----------------------|*|
|--2--------3----2--3--|*|
|----------------------| |



This riff is a slight variation of Section 5



================================================================================
Section 8: Play twice
================================================================================


||---------------------|---------------------|-----------------------|
||---------------------|---------------------|-----------------------|
||-----------7----7----|-----------7----7----|--5--5--5--------7--5--|
||--0------------------|--8------------------|-----------------------|
||---------------------|---------------------|-----------------------|


|-----------------------| |
|-----------------------| |
|--7--------7----7--7\ -|*|
|-----------------------|*|
|-----------------------| |



================================================================================
Play Section 6 twice
================================================================================

================================================================================
Play Section 7 four times
================================================================================

================================================================================
Section 9: Play twice
================================================================================


||---------------------|-----------------------|------------------------|
||---------------------|-----------------------|------------------------|
||---------------------|-----------------------|------------------------|
||--0--------0----3----|--(2 b3)----2----2--3--|--5--3--3----3----2--3--|
||---------------------|-----------------------|------------------------|


|----------------------| |
|----------------------| |
|----------------------|*|
|--2--------3----2--3--|*|
|----------------------| |



================================================================================
Play Section 5 twice, ending on the following:
================================================================================



||-------||
||-------||
||-------||
||--0----||
||-------||



================================================================================
End
================================================================================


Tab summary:        Section 1 x 4
                    Section 2 x 2
                    Section 3 x 4
                    Section 1 x 4
                    Section 2 x 2
                    Section 4 x 2
                    Section 5 x 2
                    Section 6 x 2
                    Section 7 x 2
                    Section 8 x 2
                    Section 6 x 2
                    Section 7 x 4
                    Section 9 x 2
                    Section 5 x 2

                    END

            
            
Suggest correction
Creating personal tab
Creating personal tab
You can edit any tab online and save it as your Personal.

You can edit, replace or remove any tab part or add personal notes – all changes will be seen only by you.

Personal tabs can be accessed anytime from any device, even offline.
Learn more »
Give kudos to tab author, rate the tab!
1 2 3 4 5
comments
print report bad tab
guest
You may want to rate the tab now too:
select rating
Wanna post a correction for this tab? Suggest correction